  0
SECTION
  2
HEADER
  9
$ACADVER
  1
AC1009
  9
$INSBASE
 10
0.0
 20
0.0
 30
0.0
  9
$EXTMIN
 10
1.000000E+20
 20
1.000000E+20
 30
1.000000E+20
  9
$EXTMAX
 10
-1.000000E+20
 20
-1.000000E+20
 30
-1.000000E+20
  9
$LIMMIN
 10
0.0
 20
0.0
  9
$LIMMAX
 10
0.0
 20
0.0
  9
$ORTHOMODE
 70
     0
  9
$REGENMODE
 70
     1
  9
$FILLMODE
 70
     1
  9
$QTEXTMODE
 70
     0
  9
$MIRRTEXT
 70
     1
  9
$DRAGMODE
 70
     2
  9
$LTSCALE
 40
1.0
  9
$OSMODE
 70
     0
  9
$ATTMODE
 70
     1
  9
$TEXTSIZE
 40
0.2
  9
$TRACEWID
 40
0.05
  9
$TEXTSTYLE
  7
STANDARD
  9
$CLAYER
  8
0
  9
$CELTYPE
  6
CONTINUOUS
  9
$CECOLOR
 62
   256
  9
$DIMSCALE
 40
1.0
  9
$DIMASZ
 40
0.18
  9
$DIMEXO
 40
0.0625
  9
$DIMDLI
 40
0.38
  9
$DIMRND
 40
0.0
  9
$DIMDLE
 40
0.0
  9
$DIMEXE
 40
0.18
  9
$DIMTP
 40
0.0
  9
$DIMTM
 40
0.0
  9
$DIMTXT
 40
0.18
  9
$DIMCEN
 40
0.09
  9
$DIMTSZ
 40
0.0
  9
$DIMTOL
 70
     0
  9
$DIMLIM
 70
     0
  9
$DIMTIH
 70
     1
  9
$DIMTOH
 70
     1
  9
$DIMSE1
 70
     0
  9
$DIMSE2
 70
     0
  9
$DIMTAD
 70
     0
  9
$DIMZIN
 70
     0
  9
$DIMBLK
  1

  9
$DIMASO
 70
     1
  9
$DIMSHO
 70
     1
  9
$DIMPOST
  1

  9
$DIMAPOST
  1

  9
$DIMALT
 70
     0
  9
$DIMALTD
 70
     2
  9
$DIMALTF
 40
25.4
  9
$DIMLFAC
 40
1.0
  9
$DIMTOFL
 70
     0
  9
$DIMTVP
 40
0.0
  9
$DIMTIX
 70
     0
  9
$DIMSOXD
 70
     0
  9
$DIMSAH
 70
     0
  9
$DIMBLK1
  1

  9
$DIMBLK2
  1

  9
$DIMSTYLE
  2
STANDARD
  9
$DIMCLRD
 70
     0
  9
$DIMCLRE
 70
     0
  9
$DIMCLRT
 70
     0
  9
$DIMTFAC
 40
1.0
  9
$DIMGAP
 40
0.09
  9
$LUNITS
 70
     2
  9
$LUPREC
 70
     4
  9
$AXISMODE
 70
     0
  9
$AXISUNIT
 10
0.0
 20
0.0
  9
$SKETCHINC
 40
0.1
  9
$FILLETRAD
 40
0.0
  9
$AUNITS
 70
     0
  9
$AUPREC
 70
     0
  9
$MENU
  1
acad
  9
$ELEVATION
 40
0.0
  9
$PELEVATION
 40
0.0
  9
$THICKNESS
 40
0.0
  9
$LIMCHECK
 70
     0
  9
$BLIPMODE
 70
     1
  9
$CHAMFERA
 40
0.0
  9
$CHAMFERB
 40
0.0
  9
$SKPOLY
 70
     0
  9
$TDCREATE
 40
0.000000000
  9
$TDUPDATE
 40
0.000000000
  9
$TDINDWG
 40
0.0000000000
  9
$TDUSRTIMER
 40
0.0000000000
  9
$USRTIMER
 70
     1
  9
$ANGBASE
 50
0.0
  9
$ANGDIR
 70
     0
  9
$PDMODE
 70
     0
  9
$PDSIZE
 40
0.0
  9
$PLINEWID
 40
0.0
  9
$COORDS
 70
     0
  9
$SPLFRAME
 70
     0
  9
$SPLINETYPE
 70
     6
  9
$SPLINESEGS
 70
     8
  9
$ATTDIA
 70
     0
  9
$ATTREQ
 70
     1
  9
$HANDLING
 70
     1
  9
$HANDSEED
  5
A80
  9
$SURFTAB1
 70
     6
  9
$SURFTAB2
 70
     6
  9
$SURFTYPE
 70
     6
  9
$SURFU
 70
     6
  9
$SURFV
 70
     6
  9
$UCSNAME
  2

  9
$UCSORG
 10
0.0
 20
0.0
 30
0.0
  9
$UCSXDIR
 10
1.0
 20
0.0
 30
0.0
  9
$UCSYDIR
 10
0.0
 20
1.0
 30
0.0
  9
$PUCSNAME
  2

  9
$PUCSORG
 10
0.0
 20
0.0
 30
0.0
  9
$PUCSXDIR
 10
1.0
 20
0.0
 30
0.0
  9
$PUCSYDIR
 10
0.0
 20
1.0
 30
0.0
  9
$USERI1
 70
     0
  9
$USERI2
 70
     0
  9
$USERI3
 70
     0
  9
$USERI4
 70
     0
  9
$USERI5
 70
     0
  9
$USERR1
 40
0.0
  9
$USERR2
 40
0.0
  9
$USERR3
 40
0.0
  9
$USERR4
 40
0.0
  9
$USERR5
 40
0.0
  9
$WORLDVIEW
 70
     1
  9
$SHADEDGE
 70
     3
  9
$SHADEDIF
 70
    70
  9
$TILEMODE
 70
     1
  9
$MAXACTVP
 70
    16
  9
$PINSBASE
 10
0.0
 20
0.0
 30
0.0
  9
$PLIMCHECK
 70
     0
  9
$PEXTMIN
 10
1.000000E+20
 20
1.000000E+20
 30
1.000000E+20
  9
$PEXTMAX
 10
-1.000000E+20
 20
-1.000000E+20
 30
-1.000000E+20
  9
$PLIMMIN
 10
0.0
 20
0.0
  9
$PLIMMAX
 10
12.0
 20
9.0
  9
$UNITMODE
 70
     0
  9
$VISRETAIN
 70
     0
  9
$PLINEGEN
 70
     1
  9
$PSLTSCALE
 70
     0
  9
$TREEDEPTH
 70
  3020
  9
$DWGCODEPAGE
  3
dos850
  0
ENDSEC
  0
SECTION
  2
TABLES
  0
TABLE
  2
VPORT
 70
     1
  0
VPORT
  2
*ACTIVE
 70
     0
 10
0.0
 20
0.0
 11
1.0
 21
1.0
 12
6.591288
 22
4.579184
 13
0.0
 23
0.0
 14
1.0
 24
1.0
 15
0.0
 25
0.0
 16
0.0
 26
0.0
 36
1.0
 17
0.0
 27
0.0
 37
0.0
 40
9.158369
 41
0.688564
 42
50.0
 43
0.0
 44
0.0
 50
0.0
 51
0.0
 71
     0
 72
   100
 73
     1
 74
     1
 75
     0
 76
     0
 77
     0
 78
     0
  0
ENDTAB
  0
TABLE
  2
LTYPE
 70
    25
  0
LTYPE
  2
CONTINUOUS
 70
     0
  3
Solid line
 72
    65
 73
     0
 40
0.0
  0
LTYPE
  2
BORDER
 70
     0
  3
Border __ __ . __ __ . __ __ . __ __ . __ __ .
 72
    65
 73
     6
 40
1.75
 49
0.5
 49
-0.25
 49
0.5
 49
-0.25
 49
0.0
 49
-0.25
  0
LTYPE
  2
BORDER2
 70
     0
  3
Border (.5x) __.__.__.__.__.__.__.__.__.__.__.
 72
    65
 73
     6
 40
0.875
 49
0.25
 49
-0.125
 49
0.25
 49
-0.125
 49
0.0
 49
-0.125
  0
LTYPE
  2
BORDERX2
 70
     0
  3
Border (2x) ____  ____  .  ____  ____  .  ___
 72
    65
 73
     6
 40
3.5
 49
1.0
 49
-0.5
 49
1.0
 49
-0.5
 49
0.0
 49
-0.5
  0
LTYPE
  2
CENTER
 70
     0
  3
Center ____ _ ____ _ ____ _ ____ _ ____ _ ____
 72
    65
 73
     4
 40
2.0
 49
1.25
 49
-0.25
 49
0.25
 49
-0.25
  0
LTYPE
  2
CENTER2
 70
     0
  3
Center (.5x) ___ _ ___ _ ___ _ ___ _ ___ _ ___
 72
    65
 73
     4
 40
1.125
 49
0.75
 49
-0.125
 49
0.125
 49
-0.125
  0
LTYPE
  2
CENTERX2
 70
     0
  3
Center (2x) ________  __  ________  __  _____
 72
    65
 73
     4
 40
4.0
 49
2.5
 49
-0.5
 49
0.5
 49
-0.5
  0
LTYPE
  2
DASHDOT
 70
     0
  3
Dash dot __ . __ . __ . __ . __ . __ . __ . __
 72
    65
 73
     4
 40
1.0
 49
0.5
 49
-0.25
 49
0.0
 49
-0.25
  0
LTYPE
  2
DASHDOT2
 70
     0
  3
Dash dot (.5x) _._._._._._._._._._._._._._._.
 72
    65
 73
     4
 40
0.5
 49
0.25
 49
-0.125
 49
0.0
 49
-0.125
  0
LTYPE
  2
DASHDOTX2
 70
     0
  3
Dash dot (2x) ____  .  ____  .  ____  .  ___
 72
    65
 73
     4
 40
2.0
 49
1.0
 49
-0.5
 49
0.0
 49
-0.5
  0
LTYPE
  2
DASHED
 70
     0
  3
Dashed __ __ __ __ __ __ __ __ __ __ __ __ __ _
 72
    65
 73
     2
 40
0.75
 49
0.5
 49
-0.25
  0
LTYPE
  2
DASHED2
 70
     0
  3
Dashed (.5x) _ _ _ _ _ _ _ _ _ _ _ _ _ _ _ _ _
 72
    65
 73
     2
 40
0.375
 49
0.25
 49
-0.125
  0
LTYPE
  2
DASHEDX2
 70
     0
  3
Dashed (2x) ____  ____  ____  ____  ____  ___
 72
    65
 73
     2
 40
1.5
 49
1.0
 49
-0.5
  0
LTYPE
  2
DIVIDE
 70
     0
  3
Divide ____ . . ____ . . ____ . . ____ . . ____
 72
    65
 73
     6
 40
1.25
 49
0.5
 49
-0.25
 49
0.0
 49
-0.25
 49
0.0
 49
-0.25
  0
LTYPE
  2
DIVIDE2
 70
     0
  3
Divide (.5x) __..__..__..__..__..__..__..__.._
 72
    65
 73
     6
 40
0.625
 49
0.25
 49
-0.125
 49
0.0
 49
-0.125
 49
0.0
 49
-0.125
  0
LTYPE
  2
DIVIDEX2
 70
     0
  3
Divide (2x) ________  .  .  ________  .  .  _
 72
    65
 73
     6
 40
2.5
 49
1.0
 49
-0.5
 49
0.0
 49
-0.5
 49
0.0
 49
-0.5
  0
LTYPE
  2
DOT
 70
     0
  3
Dot . . . . . . . . . . . . . . . . . . . . . .
 72
    65
 73
     2
 40
0.25
 49
0.0
 49
-0.25
  0
LTYPE
  2
DOT2
 70
     0
  3
Dot (.5x) .....................................
 72
    65
 73
     2
 40
0.125
 49
0.0
 49
-0.125
  0
LTYPE
  2
DOTX2
 70
     0
  3
Dot (2x) .  .  .  .  .  .  .  .  .  .  .  .  . 
 72
    65
 73
     2
 40
0.5
 49
0.0
 49
-0.5
  0
LTYPE
  2
HIDDEN
 70
     0
  3
Hidden __ __ __ __ __ __ __ __ __ __ __ __ __ _
 72
    65
 73
     2
 40
0.375
 49
0.25
 49
-0.125
  0
LTYPE
  2
HIDDEN2
 70
     0
  3
Hidden (.5x) _ _ _ _ _ _ _ _ _ _ _ _ _ _ _ _ _
 72
    65
 73
     2
 40
0.1875
 49
0.125
 49
-0.0625
  0
LTYPE
  2
HIDDENX2
 70
     0
  3
Hidden (2x) ____ ____ ____ ____ ____ ____ ____
 72
    65
 73
     2
 40
0.75
 49
0.5
 49
-0.25
  0
LTYPE
  2
PHANTOM
 70
     0
  3
Phantom ______  __  __  ______  __  __  ______
 72
    65
 73
     6
 40
2.5
 49
1.25
 49
-0.25
 49
0.25
 49
-0.25
 49
0.25
 49
-0.25
  0
LTYPE
  2
PHANTOM2
 70
     0
  3
Phantom (.5x) ___ _ _ ___ _ _ ___ _ _ ___ _ _
 72
    65
 73
     6
 40
1.25
 49
0.625
 49
-0.125
 49
0.125
 49
-0.125
 49
0.125
 49
-0.125
  0
LTYPE
  2
PHANTOMX2
 70
     0
  3
Phantom (2x) ____________    ____    ____   _
 72
    65
 73
     6
 40
5.0
 49
2.5
 49
-0.5
 49
0.5
 49
-0.5
 49
0.5
 49
-0.5
  0
ENDTAB
  0
TABLE
  2
LAYER
 70
     6
  0
LAYER
  2
0
 70
     0
 62
     7
  6
CONTINUOUS
  0
LAYER
  2
TEXT
 70
     0
 62
     6
  6
CONTINUOUS
  0
LAYER
  2
IMAGE
 70
     0
 62
     4
  6
CONTINUOUS
  0
LAYER
  2
PLAN
 70
     0
 62
     5
  6
CONTINUOUS
  0
LAYER
  2
DRAWING
 70
     0
 62
     6
  6
CONTINUOUS
  0
LAYER
  2
WING
 70
     0
 62
     4
  6
CONTINUOUS
  0
ENDTAB
  0
TABLE
  2
STYLE
 70
    11
  0
STYLE
  2
STANDARD
 70
     0
 40
0.0
 41
1.0
 50
0.0
 71
     0
 42
0.0
  3
txt
  4

  0
STYLE
  2
TXT
 70
     0
 40
0.2
 41
1.0
 50
0.0
 71
     0
 42
0.2
  3
TXT
  4

  0
STYLE
  2
ROMANS
 70
     0
 40
0.2
 41
1.0
 50
0.0
 71
     0
 42
0.2
  3
ROMANS
  4

  0
STYLE
  2
ROMAND
 70
     0
 40
0.2
 41
1.0
 50
0.0
 71
     0
 42
0.2
  3
ROMAND
  4

  0
STYLE
  2
ROMANC
 70
     0
 40
0.2
 41
1.0
 50
0.0
 71
     0
 42
0.2
  3
ROMANC
  4

  0
STYLE
  2
ITALICC
 70
     0
 40
0.2
 41
1.0
 50
0.0
 71
     0
 42
0.2
  3
ITALICC
  4

  0
STYLE
  2
ROMANT
 70
     0
 40
0.2
 41
1.0
 50
0.0
 71
     0
 42
0.2
  3
ROMANT
  4

  0
STYLE
  2
ITALICT
 70
     0
 40
0.2
 41
1.0
 50
0.0
 71
     0
 42
0.2
  3
ITALICT
  4

  0
STYLE
  2
SCRIPTS
 70
     0
 40
0.2
 41
1.0
 50
0.0
 71
     0
 42
0.2
  3
SCRIPTS
  4

  0
STYLE
  2
SCRIPTC
 70
     0
 40
0.2
 41
1.0
 50
0.0
 71
     0
 42
0.2
  3
SCRIPTC
  4

  0
STYLE
  2
TXT
 70
     0
 40
0.2
 41
1.0
 50
0.0
 71
     0
 42
0.2
  3
TXT
  4

  0
ENDTAB
  0
TABLE
  2
VIEW
 70
     0
  0
ENDTAB
  0
TABLE
  2
UCS
 70
     0
  0
ENDTAB
  0
TABLE
  2
APPID
 70
     1
  0
APPID
  2
ACAD
 70
     0
  0
ENDTAB
  0
TABLE
  2
DIMSTYLE
 70
     1
  0
DIMSTYLE
  2
STANDARD
 70
     0
  3

  4

  5

  6

  7

 40
1.0
 41
0.18
 42
0.0625
 43
0.38
 44
0.18
 45
0.0
 46
0.0
 47
0.0
 48
0.0
140
0.18
141
0.09
142
0.0
143
25.4
144
1.0
145
0.0
146
1.0
147
0.09
 71
     0
 72
     0
 73
     1
 74
     1
 75
     0
 76
     0
 77
     0
 78
     0
170
     0
171
     2
172
     0
173
     0
174
     0
175
     0
176
     0
177
     0
178
     0
  0
ENDTAB
  0
ENDSEC
  0
SECTION
  2
BLOCKS
  0
ENDSEC
  0
SECTION
  2
ENTITIES
  0
TEXT
  8
TEXT
  6
CONTINUOUS
 62
     8
  5
44
 10
-133.583619
 20
90.975069
 30
0.0
 40
5.926666
  1
The Saqqara Bird
  7
ROMAND
  0
TEXT
  8
TEXT
  6
CONTINUOUS
 62
     8
  5
45
 10
-132.656851
 20
82.144784
 30
0.0
 40
3.457222
  1
after a drawing by Paula Mercado
  7
ROMANC
  0
LINE
  8
PLAN
  6
HIDDEN2
 62
    11
  5
46
 10
-32.193735
 20
65.031731
 30
0.0
 11
-32.074606
 21
35.951492
 31
0.0
  0
LINE
  8
PLAN
  6
HIDDEN2
 62
    11
  5
47
 10
-27.693697
 20
65.031731
 30
0.0
 11
-27.574569
 21
35.951492
 31
0.0
  0
LINE
  8
PLAN
  6
CONTINUOUS
 62
    11
  5
48
 10
-30.068023
 20
95.287434
 30
0.0
 11
-30.383545
 21
94.867418
 31
0.0
  0
LINE
  8
PLAN
  6
CONTINUOUS
 62
    11
  5
49
 10
-30.383545
 20
94.867418
 30
0.0
 11
-30.702666
 21
94.450075
 31
0.0
  0
LINE
  8
PLAN
  6
CONTINUOUS
 62
    11
  5
4A
 10
-30.702666
 20
94.450075
 30
0.0
 11
-31.023844
 21
94.03426
 31
0.0
  0
LINE
  8
PLAN
  6
CONTINUOUS
 62
    11
  5
4B
 10
-31.023844
 20
94.03426
 30
0.0
 11
-31.345536
 21
93.618826
 31
0.0
  0
LINE
  8
PLAN
  6
CONTINUOUS
 62
    11
  5
4C
 10
-31.345536
 20
93.618826
 30
0.0
 11
-31.6662
 21
93.202629
 31
0.0
  0
LINE
  8
PLAN
  6
CONTINUOUS
 62
    11
  5
4D
 10
-31.6662
 20
93.202629
 30
0.0
 11
-31.984292
 21
92.784522
 31
0.0
  0
LINE
  8
PLAN
  6
CONTINUOUS
 62
    11
  5
4E
 10
-31.984292
 20
92.784522
 30
0.0
 11
-32.298272
 21
92.363361
 31
0.0
  0
LINE
  8
PLAN
  6
CONTINUOUS
 62
    11
  5
4F
 10
-32.298272
 20
92.363361
 30
0.0
 11
-32.606595
 21
91.937998
 31
0.0
  0
LINE
  8
PLAN
  6
CONTINUOUS
 62
    11
  5
50
 10
-32.606595
 20
91.937998
 30
0.0
 11
-32.907719
 21
91.50729
 31
0.0
  0
LINE
  8
PLAN
  6
CONTINUOUS
 62
    11
  5
51
 10
-32.907719
 20
91.50729
 30
0.0
 11
-33.200102
 21
91.07009
 31
0.0
  0
LINE
  8
PLAN
  6
CONTINUOUS
 62
    11
  5
52
 10
-33.200102
 20
91.07009
 30
0.0
 11
-33.539103
 21
90.543561
 31
0.0
  0
LINE
  8
PLAN
  6
CONTINUOUS
 62
    11
  5
53
 10
-33.539103
 20
90.543561
 30
0.0
 11
-33.871924
 21
90.013439
 31
0.0
  0
LINE
  8
PLAN
  6
CONTINUOUS
 62
    11
  5
54
 10
-33.871924
 20
90.013439
 30
0.0
 11
-34.198842
 21
89.479883
 31
0.0
  0
LINE
  8
PLAN
  6
CONTINUOUS
 62
    11
  5
55
 10
-34.198842
 20
89.479883
 30
0.0
 11
-34.520134
 21
88.943055
 31
0.0
  0
LINE
  8
PLAN
  6
CONTINUOUS
 62
    11
  5
56
 10
-34.520134
 20
88.943055
 30
0.0
 11
-34.836078
 21
88.403116
 31
0.0
  0
LINE
  8
PLAN
  6
CONTINUOUS
 62
    11
  5
57
 10
-34.836078
 20
88.403116
 30
0.0
 11
-35.146949
 21
87.860228
 31
0.0
  0
LINE
  8
PLAN
  6
CONTINUOUS
 62
    11
  5
58
 10
-35.146949
 20
87.860228
 30
0.0
 11
-35.453026
 21
87.31455
 31
0.0
  0
LINE
  8
PLAN
  6
CONTINUOUS
 62
    11
  5
59
 10
-35.453026
 20
87.31455
 30
0.0
 11
-35.754585
 21
86.766246
 31
0.0
  0
LINE
  8
PLAN
  6
CONTINUOUS
 62
    11
  5
5A
 10
-35.754585
 20
86.766246
 30
0.0
 11
-36.051903
 21
86.215474
 31
0.0
  0
LINE
  8
PLAN
  6
CONTINUOUS
 62
    11
  5
5B
 10
-36.051903
 20
86.215474
 30
0.0
 11
-36.345258
 21
85.662398
 31
0.0
  0
LINE
  8
PLAN
  6
CONTINUOUS
 62
    11
  5
5C
 10
-36.345258
 20
85.662398
 30
0.0
 11
-36.616002
 21
85.149584
 31
0.0
  0
LINE
  8
PLAN
  6
CONTINUOUS
 62
    11
  5
5D
 10
-36.616002
 20
85.149584
 30
0.0
 11
-36.886962
 21
84.636872
 31
0.0
  0
LINE
  8
PLAN
  6
CONTINUOUS
 62
    11
  5
5E
 10
-36.886962
 20
84.636872
 30
0.0
 11
-37.155975
 21
84.123248
 31
0.0
  0
LINE
  8
PLAN
  6
CONTINUOUS
 62
    11
  5
5F
 10
-37.155975
 20
84.123248
 30
0.0
 11
-37.420879
 21
83.607698
 31
0.0
  0
LINE
  8
PLAN
  6
CONTINUOUS
 62
    11
  5
60
 10
-37.420879
 20
83.607698
 30
0.0
 11
-37.679512
 21
83.08921
 31
0.0
  0
LINE
  8
PLAN
  6
CONTINUOUS
 62
    11
  5
61
 10
-37.679512
 20
83.08921
 30
0.0
 11
-37.92971
 21
82.566769
 31
0.0
  0
LINE
  8
PLAN
  6
CONTINUOUS
 62
    11
  5
62
 10
-37.92971
 20
82.566769
 30
0.0
 11
-38.169311
 21
82.039364
 31
0.0
  0
LINE
  8
PLAN
  6
CONTINUOUS
 62
    11
  5
63
 10
-38.169311
 20
82.039364
 30
0.0
 11
-38.396152
 21
81.50598
 31
0.0
  0
LINE
  8
PLAN
  6
CONTINUOUS
 62
    11
  5
64
 10
-38.396152
 20
81.50598
 30
0.0
 11
-38.608072
 21
80.965604
 31
0.0
  0
LINE
  8
PLAN
  6
CONTINUOUS
 62
    11
  5
65
 10
-38.608072
 20
80.965604
 30
0.0
 11
-38.802907
 21
80.417223
 31
0.0
  0
LINE
  8
PLAN
  6
CONTINUOUS
 62
    11
  5
66
 10
-38.802907
 20
80.417223
 30
0.0
 11
-39.092887
 21
79.529337
 31
0.0
  0
LINE
  8
PLAN
  6
CONTINUOUS
 62
    11
  5
67
 10
-39.092887
 20
79.529337
 30
0.0
 11
-39.368396
 21
78.63771
 31
0.0
  0
LINE
  8
PLAN
  6
CONTINUOUS
 62
    11
  5
68
 10
-39.368396
 20
78.63771
 30
0.0
 11
-39.63014
 21
77.742524
 31
0.0
  0
LINE
  8
PLAN
  6
CONTINUOUS
 62
    11
  5
69
 10
-39.63014
 20
77.742524
 30
0.0
 11
-39.878829
 21
76.843963
 31
0.0
  0
LINE
  8
PLAN
  6
CONTINUOUS
 62
    11
  5
6A
 10
-39.878829
 20
76.843963
 30
0.0
 11
-40.115171
 21
75.942208
 31
0.0
  0
LINE
  8
PLAN
  6
CONTINUOUS
 62
    11
  5
6B
 10
-40.115171
 20
75.942208
 30
0.0
 11
-40.339873
 21
75.037445
 31
0.0
  0
LINE
  8
PLAN
  6
CONTINUOUS
 62
    11
  5
6C
 10
-40.339873
 20
75.037445
 30
0.0
 11
-40.553643
 21
74.129855
 31
0.0
  0
LINE
  8
PLAN
  6
CONTINUOUS
 62
    11
  5
6D
 10
-40.553643
 20
74.129855
 30
0.0
 11
-40.757191
 21
73.219622
 31
0.0
  0
LINE
  8
PLAN
  6
CONTINUOUS
 62
    11
  5
6E
 10
-40.757191
 20
73.219622
 30
0.0
 11
-40.951223
 21
72.306928
 31
0.0
  0
LINE
  8
PLAN
  6
CONTINUOUS
 62
    11
  5
6F
 10
-40.951223
 20
72.306928
 30
0.0
 11
-41.136448
 21
71.391958
 31
0.0
  0
LINE
  8
PLAN
  6
CONTINUOUS
 62
    11
  5
70
 10
-41.136448
 20
71.391958
 30
0.0
 11
-41.261636
 21
70.738934
 31
0.0
  0
LINE
  8
PLAN
  6
CONTINUOUS
 62
    11
  5
71
 10
-41.261636
 20
70.738934
 30
0.0
 11
-41.378529
 21
70.084964
 31
0.0
  0
LINE
  8
PLAN
  6
CONTINUOUS
 62
    11
  5
72
 10
-41.378529
 20
70.084964
 30
0.0
 11
-41.486073
 21
69.429926
 31
0.0
  0
LINE
  8
PLAN
  6
CONTINUOUS
 62
    11
  5
73
 10
-41.486073
 20
69.429926
 30
0.0
 11
-41.583217
 21
68.7737
 31
0.0
  0
LINE
  8
PLAN
  6
CONTINUOUS
 62
    11
  5
74
 10
-41.583217
 20
68.7737
 30
0.0
 11
-41.668909
 21
68.116166
 31
0.0
  0
LINE
  8
PLAN
  6
CONTINUOUS
 62
    11
  5
75
 10
-41.668909
 20
68.116166
 30
0.0
 11
-41.742095
 21
67.457204
 31
0.0
  0
LINE
  8
PLAN
  6
CONTINUOUS
 62
    11
  5
76
 10
-41.742095
 20
67.457204
 30
0.0
 11
-41.801724
 21
66.796693
 31
0.0
  0
LINE
  8
PLAN
  6
CONTINUOUS
 62
    11
  5
77
 10
-41.801724
 20
66.796693
 30
0.0
 11
-41.846743
 21
66.134515
 31
0.0
  0
LINE
  8
PLAN
  6
CONTINUOUS
 62
    11
  5
78
 10
-41.846743
 20
66.134515
 30
0.0
 11
-41.8761
 21
65.470547
 31
0.0
  0
LINE
  8
PLAN
  6
HIDDEN2
 62
    11
  5
79
 10
-41.8761
 20
65.470547
 30
0.0
 11
-41.888743
 21
64.804671
 31
0.0
  0
LINE
  8
PLAN
  6
HIDDEN2
 62
    11
  5
7A
 10
-41.888743
 20
64.804671
 30
0.0
 11
-41.89252
 21
62.931172
 31
0.0
  0
LINE
  8
PLAN
  6
HIDDEN2
 62
    11
  5
7B
 10
-41.89252
 20
62.931172
 30
0.0
 11
-41.881806
 21
61.05814
 31
0.0
  0
LINE
  8
PLAN
  6
HIDDEN2
 62
    11
  5
7C
 10
-41.881806
 20
61.05814
 30
0.0
 11
-41.856693
 21
59.185572
 31
0.0
  0
LINE
  8
PLAN
  6
HIDDEN2
 62
    11
  5
7D
 10
-41.856693
 20
59.185572
 30
0.0
 11
-41.817278
 21
57.313465
 31
0.0
  0
LINE
  8
PLAN
  6
HIDDEN2
 62
    11
  5
7E
 10
-41.817278
 20
57.313465
 30
0.0
 11
-41.763655
 21
55.441816
 31
0.0
  0
LINE
  8
PLAN
  6
HIDDEN2
 62
    11
  5
7F
 10
-41.763655
 20
55.441816
 30
0.0
 11
-41.695918
 21
53.570622
 31
0.0
  0
LINE
  8
PLAN
  6
HIDDEN2
 62
    11
  5
80
 10
-41.695918
 20
53.570622
 30
0.0
 11
-41.614162
 21
51.699879
 31
0.0
  0
LINE
  8
PLAN
  6
HIDDEN2
 62
    11
  5
81
 10
-41.614162
 20
51.699879
 30
0.0
 11
-41.518482
 21
49.829585
 31
0.0
  0
LINE
  8
PLAN
  6
HIDDEN2
 62
    11
  5
82
 10
-41.518482
 20
49.829585
 30
0.0
 11
-41.408972
 21
47.959736
 31
0.0
  0
LINE
  8
PLAN
  6
HIDDEN2
 62
    11
  5
83
 10
-41.408972
 20
47.959736
 30
0.0
 11
-41.285728
 21
46.09033
 31
0.0
  0
LINE
  8
PLAN
  6
HIDDEN2
 62
    11
  5
84
 10
-41.285728
 20
46.09033
 30
0.0
 11
-41.197035
 21
44.975521
 31
0.0
  0
LINE
  8
PLAN
  6
HIDDEN2
 62
    11
  5
85
 10
-41.197035
 20
44.975521
 30
0.0
 11
-41.088139
 21
43.863395
 31
0.0
  0
LINE
  8
PLAN
  6
HIDDEN2
 62
    11
  5
86
 10
-41.088139
 20
43.863395
 30
0.0
 11
-40.961757
 21
42.75359
 31
0.0
  0
LINE
  8
PLAN
  6
HIDDEN2
 62
    11
  5
87
 10
-40.961757
 20
42.75359
 30
0.0
 11
-40.82061
 21
41.645745
 31
0.0
  0
LINE
  8
PLAN
  6
HIDDEN2
 62
    11
  5
88
 10
-40.82061
 20
41.645745
 30
0.0
 11
-40.667416
 21
40.539499
 31
0.0
  0
LINE
  8
PLAN
  6
HIDDEN2
 62
    11
  5
89
 10
-40.667416
 20
40.539499
 30
0.0
 11
-40.504896
 21
39.434492
 31
0.0
  0
LINE
  8
PLAN
  6
HIDDEN2
 62
    11
  5
8A
 10
-40.504896
 20
39.434492
 30
0.0
 11
-40.335768
 21
38.330362
 31
0.0
  0
LINE
  8
PLAN
  6
HIDDEN2
 62
    11
  5
8B
 10
-40.335768
 20
38.330362
 30
0.0
 11
-40.162753
 21
37.226748
 31
0.0
  0
LINE
  8
PLAN
  6
HIDDEN2
 62
    11
  5
8C
 10
-40.162753
 20
37.226748
 30
0.0
 11
-39.988569
 21
36.123289
 31
0.0
  0
LINE
  8
PLAN
  6
CONTINUOUS
 62
    11
  5
8D
 10
-39.988569
 20
36.123289
 30
0.0
 11
-39.815936
 21
35.019624
 31
0.0
  0
LINE
  8
PLAN
  6
CONTINUOUS
 62
    11
  5
8E
 10
-39.815936
 20
35.019624
 30
0.0
 11
-39.677562
 21
34.129227
 31
0.0
  0
LINE
  8
PLAN
  6
CONTINUOUS
 62
    11
  5
8F
 10
-39.677562
 20
34.129227
 30
0.0
 11
-39.537399
 21
33.239157
 31
0.0
  0
LINE
  8
PLAN
  6
CONTINUOUS
 62
    11
  5
90
 10
-39.537399
 20
33.239157
 30
0.0
 11
-39.394174
 21
32.349646
 31
0.0
  0
LINE
  8
PLAN
  6
CONTINUOUS
 62
    11
  5
91
 10
-39.394174
 20
32.349646
 30
0.0
 11
-39.246615
 21
31.460925
 31
0.0
  0
LINE
  8
PLAN
  6
CONTINUOUS
 62
    11
  5
92
 10
-39.246615
 20
31.460925
 30
0.0
 11
-39.093449
 21
30.573228
 31
0.0
  0
LINE
  8
PLAN
  6
CONTINUOUS
 62
    11
  5
93
 10
-39.093449
 20
30.573228
 30
0.0
 11
-38.933403
 21
29.686786
 31
0.0
  0
LINE
  8
PLAN
  6
CONTINUOUS
 62
    11
  5
94
 10
-38.933403
 20
29.686786
 30
0.0
 11
-38.765207
 21
28.801831
 31
0.0
  0
LINE
  8
PLAN
  6
CONTINUOUS
 62
    11
  5
95
 10
-38.765207
 20
28.801831
 30
0.0
 11
-38.587586
 21
27.918596
 31
0.0
  0
LINE
  8
PLAN
  6
CONTINUOUS
 62
    11
  5
96
 10
-38.587586
 20
27.918596
 30
0.0
 11
-38.399269
 21
27.037312
 31
0.0
  0
LINE
  8
PLAN
  6
CONTINUOUS
 62
    11
  5
97
 10
-38.399269
 20
27.037312
 30
0.0
 11
-38.198983
 21
26.158213
 31
0.0
  0
LINE
  8
PLAN
  6
CONTINUOUS
 62
    11
  5
98
 10
-38.198983
 20
26.158213
 30
0.0
 11
-37.988504
 21
25.294308
 31
0.0
  0
LINE
  8
PLAN
  6
CONTINUOUS
 62
    11
  5
99
 10
-37.988504
 20
25.294308
 30
0.0
 11
-37.765755
 21
24.433967
 31
0.0
  0
LINE
  8
PLAN
  6
CONTINUOUS
 62
    11
  5
9A
 10
-37.765755
 20
24.433967
 30
0.0
 11
-37.532228
 21
23.576756
 31
0.0
  0
LINE
  8
PLAN
  6
CONTINUOUS
 62
    11
  5
9B
 10
-37.532228
 20
23.576756
 30
0.0
 11
-37.289418
 21
22.722242
 31
0.0
  0
LINE
  8
PLAN
  6
CONTINUOUS
 62
    11
  5
9C
 10
-37.289418
 20
22.722242
 30
0.0
 11
-37.038818
 21
21.86999
 31
0.0
  0
LINE
  8
PLAN
  6
CONTINUOUS
 62
    11
  5
9D
 10
-37.038818
 20
21.86999
 30
0.0
 11
-36.781922
 21
21.019567
 31
0.0
  0
LINE
  8
PLAN
  6
CONTINUOUS
 62
    11
  5
9E
 10
-36.781922
 20
21.019567
 30
0.0
 11
-36.520223
 21
20.170539
 31
0.0
  0
LINE
  8
PLAN
  6
CONTINUOUS
 62
    11
  5
9F
 10
-36.520223
 20
20.170539
 30
0.0
 11
-36.255215
 21
19.322471
 31
0.0
  0
LINE
  8
PLAN
  6
CONTINUOUS
 62
    11
  5
A0
 10
-36.255215
 20
19.322471
 30
0.0
 11
-35.988391
 21
18.474932
 31
0.0
  0
LINE
  8
PLAN
  6
CONTINUOUS
 62
    11
  5
A1
 10
-35.988391
 20
18.474932
 30
0.0
 11
-35.721246
 21
17.627485
 31
0.0
  0
LINE
  8
PLAN
  6
CONTINUOUS
 62
    11
  5
A2
 10
-35.721246
 20
17.627485
 30
0.0
 11
-35.584476
 21
17.212915
 31
0.0
  0
LINE
  8
PLAN
  6
CONTINUOUS
 62
    11
  5
A3
 10
-35.584476
 20
17.212915
 30
0.0
 11
-35.438141
 21
16.80184
 31
0.0
  0
LINE
  8
PLAN
  6
CONTINUOUS
 62
    11
  5
A4
 10
-35.438141
 20
16.80184
 30
0.0
 11
-35.284744
 21
16.393346
 31
0.0
  0
LINE
  8
PLAN
  6
CONTINUOUS
 62
    11
  5
A5
 10
-35.284744
 20
16.393346
 30
0.0
 11
-35.126786
 21
15.986519
 31
0.0
  0
LINE
  8
PLAN
  6
CONTINUOUS
 62
    11
  5
A6
 10
-35.126786
 20
15.986519
 30
0.0
 11
-34.96677
 21
15.580444
 31
0.0
  0
LINE
  8
PLAN
  6
CONTINUOUS
 62
    11
  5
A7
 10
-34.96677
 20
15.580444
 30
0.0
 11
-34.807199
 21
15.174207
 31
0.0
  0
LINE
  8
PLAN
  6
CONTINUOUS
 62
    11
  5
A8
 10
-34.807199
 20
15.174207
 30
0.0
 11
-34.650573
 21
14.766894
 31
0.0
  0
LINE
  8
PLAN
  6
CONTINUOUS
 62
    11
  5
A9
 10
-34.650573
 20
14.766894
 30
0.0
 11
-34.499396
 21
14.357589
 31
0.0
  0
LINE
  8
PLAN
  6
CONTINUOUS
 62
    11
  5
AA
 10
-34.499396
 20
14.357589
 30
0.0
 11
-34.356169
 21
13.945378
 31
0.0
  0
LINE
  8
PLAN
  6
CONTINUOUS
 62
    11
  5
AB
 10
-34.356169
 20
13.945378
 30
0.0
 11
-34.223394
 21
13.529347
 31
0.0
  0
LINE
  8
PLAN
  6
CONTINUOUS
 62
    11
  5
AC
 10
-34.223394
 20
13.529347
 30
0.0
 11
-34.10549
 21
13.124795
 31
0.0
  0
LINE
  8
PLAN
  6
CONTINUOUS
 62
    11
  5
AD
 10
-34.10549
 20
13.124795
 30
0.0
 11
-33.995405
 21
12.718363
 31
0.0
  0
LINE
  8
PLAN
  6
CONTINUOUS
 62
    11
  5
AE
 10
-33.995405
 20
12.718363
 30
0.0
 11
-33.891835
 21
12.310366
 31
0.0
  0
LINE
  8
PLAN
  6
CONTINUOUS
 62
    11
  5
AF
 10
-33.891835
 20
12.310366
 30
0.0
 11
-33.793477
 21
11.901116
 31
0.0
  0
LINE
  8
PLAN
  6
CONTINUOUS
 62
    11
  5
B0
 10
-33.793477
 20
11.901116
 30
0.0
 11
-33.699028
 21
11.490926
 31
0.0
  0
LINE
  8
PLAN
  6
CONTINUOUS
 62
    11
  5
B1
 10
-33.699028
 20
11.490926
 30
0.0
 11
-33.607183
 21
11.080111
 31
0.0
  0
LINE
  8
PLAN
  6
CONTINUOUS
 62
    11
  5
B2
 10
-33.607183
 20
11.080111
 30
0.0
 11
-33.516638
 21
10.668983
 31
0.0
  0
LINE
  8
PLAN
  6
CONTINUOUS
 62
    11
  5
B3
 10
-33.516638
 20
10.668983
 30
0.0
 11
-33.426091
 21
10.257856
 31
0.0
  0
LINE
  8
PLAN
  6
CONTINUOUS
 62
    11
  5
B4
 10
-33.426091
 20
10.257856
 30
0.0
 11
-33.334237
 21
9.847043
 31
0.0
  0
LINE
  8
PLAN
  6
CONTINUOUS
 62
    11
  5
B5
 10
-33.334237
 20
9.847043
 30
0.0
 11
-33.239772
 21
9.436857
 31
0.0
  0
LINE
  8
PLAN
  6
CONTINUOUS
 62
    11
  5
B6
 10
-33.239772
 20
9.436857
 30
0.0
 11
-33.155115
 21
9.079468
 31
0.0
  0
LINE
  8
PLAN
  6
CONTINUOUS
 62
    11
  5
B7
 10
-33.155115
 20
9.079468
 30
0.0
 11
-33.069447
 21
8.72231
 31
0.0
  0
LINE
  8
PLAN
  6
CONTINUOUS
 62
    11
  5
B8
 10
-33.069447
 20
8.72231
 30
0.0
 11
-32.983387
 21
8.365241
 31
0.0
  0
LINE
  8
PLAN
  6
CONTINUOUS
 62
    11
  5
B9
 10
-32.983387
 20
8.365241
 30
0.0
 11
-32.897554
 21
8.008121
 31
0.0
  0
LINE
  8
PLAN
  6
CONTINUOUS
 62
    11
  5
BA
 10
-32.897554
 20
8.008121
 30
0.0
 11
-32.812566
 21
7.650808
 31
0.0
  0
LINE
  8
PLAN
  6
CONTINUOUS
 62
    11
  5
BB
 10
-32.812566
 20
7.650808
 30
0.0
 11
-32.729041
 21
7.29316
 31
0.0
  0
LINE
  8
PLAN
  6
CONTINUOUS
 62
    11
  5
BC
 10
-32.729041
 20
7.29316
 30
0.0
 11
-32.647599
 21
6.935037
 31
0.0
  0
LINE
  8
PLAN
  6
CONTINUOUS
 62
    11
  5
BD
 10
-32.647599
 20
6.935037
 30
0.0
 11
-32.568858
 21
6.576296
 31
0.0
  0
LINE
  8
PLAN
  6
CONTINUOUS
 62
    11
  5
BE
 10
-32.568858
 20
6.576296
 30
0.0
 11
-32.493437
 21
6.216798
 31
0.0
  0
LINE
  8
PLAN
  6
CONTINUOUS
 62
    11
  5
BF
 10
-32.493437
 20
6.216798
 30
0.0
 11
-32.421955
 21
5.8564
 31
0.0
  0
LINE
  8
PLAN
  6
CONTINUOUS
 62
    11
  5
C0
 10
-32.421955
 20
5.8564
 30
0.0
 11
-32.361029
 21
5.538603
 31
0.0
  0
LINE
  8
PLAN
  6
CONTINUOUS
 62
    11
  5
C1
 10
-32.361029
 20
5.538603
 30
0.0
 11
-32.300822
 21
5.220697
 31
0.0
  0
LINE
  8
PLAN
  6
CONTINUOUS
 62
    11
  5
C2
 10
-32.300822
 20
5.220697
 30
0.0
 11
-32.24211
 21
4.902565
 31
0.0
  0
LINE
  8
PLAN
  6
CONTINUOUS
 62
    11
  5
C3
 10
-32.24211
 20
4.902565
 30
0.0
 11
-32.185671
 21
4.584089
 31
0.0
  0
LINE
  8
PLAN
  6
CONTINUOUS
 62
    11
  5
C4
 10
-32.185671
 20
4.584089
 30
0.0
 11
-32.13228
 21
4.265152
 31
0.0
  0
LINE
  8
PLAN
  6
CONTINUOUS
 62
    11
  5
C5
 10
-32.13228
 20
4.265152
 30
0.0
 11
-32.082714
 21
3.945637
 31
0.0
  0
LINE
  8
PLAN
  6
CONTINUOUS
 62
    11
  5
C6
 10
-32.082714
 20
3.945637
 30
0.0
 11
-32.037749
 21
3.625425
 31
0.0
  0
LINE
  8
PLAN
  6
CONTINUOUS
 62
    11
  5
C7
 10
-32.037749
 20
3.625425
 30
0.0
 11
-31.998162
 21
3.304399
 31
0.0
  0
LINE
  8
PLAN
  6
CONTINUOUS
 62
    11
  5
C8
 10
-31.998162
 20
3.304399
 30
0.0
 11
-31.964728
 21
2.982442
 31
0.0
  0
LINE
  8
PLAN
  6
CONTINUOUS
 62
    11
  5
C9
 10
-31.964728
 20
2.982442
 30
0.0
 11
-31.938224
 21
2.659437
 31
0.0
  0
LINE
  8
PLAN
  6
CONTINUOUS
 62
    11
  5
CA
 10
-30.067296
 20
95.287437
 30
0.0
 11
-29.748332
 21
94.870029
 31
0.0
  0
LINE
  8
PLAN
  6
CONTINUOUS
 62
    11
  5
CB
 10
-29.748332
 20
94.870029
 30
0.0
 11
-29.425791
 21
94.455324
 31
0.0
  0
LINE
  8
PLAN
  6
CONTINUOUS
 62
    11
  5
CC
 10
-29.425791
 20
94.455324
 30
0.0
 11
-29.101206
 21
94.042163
 31
0.0
  0
LINE
  8
PLAN
  6
CONTINUOUS
 62
    11
  5
CD
 10
-29.101206
 20
94.042163
 30
0.0
 11
-28.776109
 21
93.629388
 31
0.0
  0
LINE
  8
PLAN
  6
CONTINUOUS
 62
    11
  5
CE
 10
-28.776109
 20
93.629388
 30
0.0
 11
-28.452035
 21
93.215841
 31
0.0
  0
LINE
  8
PLAN
  6
CONTINUOUS
 62
    11
  5
CF
 10
-28.452035
 20
93.215841
 30
0.0
 11
-28.130516
 21
92.800363
 31
0.0
  0
LINE
  8
PLAN
  6
CONTINUOUS
 62
    11
  5
D0
 10
-28.130516
 20
92.800363
 30
0.0
 11
-27.813085
 21
92.381797
 31
0.0
  0
LINE
  8
PLAN
  6
CONTINUOUS
 62
    11
  5
D1
 10
-27.813085
 20
92.381797
 30
0.0
 11
-27.501276
 21
91.958984
 31
0.0
  0
LINE
  8
PLAN
  6
CONTINUOUS
 62
    11
  5
D2
 10
-27.501276
 20
91.958984
 30
0.0
 11
-27.196621
 21
91.530765
 31
0.0
  0
LINE
  8
PLAN
  6
CONTINUOUS
 62
    11
  5
D3
 10
-27.196621
 20
91.530765
 30
0.0
 11
-26.900653
 21
91.095983
 31
0.0
  0
LINE
  8
PLAN
  6
CONTINUOUS
 62
    11
  5
D4
 10
-26.900653
 20
91.095983
 30
0.0
 11
-26.557335
 21
90.57226
 31
0.0
  0
LINE
  8
PLAN
  6
CONTINUOUS
 62
    11
  5
D5
 10
-26.557335
 20
90.57226
 30
0.0
 11
-26.220168
 21
90.044891
 31
0.0
  0
LINE
  8
PLAN
  6
CONTINUOUS
 62
    11
  5
D6
 10
-26.220168
 20
90.044891
 30
0.0
 11
-25.888874
 21
89.514041
 31
0.0
  0
LINE
  8
PLAN
  6
CONTINUOUS
 62
    11
  5
D7
 10
-25.888874
 20
89.514041
 30
0.0
 11
-25.56318
 21
88.979872
 31
0.0
  0
LINE
  8
PLAN
  6
CONTINUOUS
 62
    11
  5
D8
 10
-25.56318
 20
88.979872
 30
0.0
 11
-25.242808
 21
88.442549
 31
0.0
  0
LINE
  8
PLAN
  6
CONTINUOUS
 62
    11
  5
D9
 10
-25.242808
 20
88.442549
 30
0.0
 11
-24.927484
 21
87.902235
 31
0.0
  0
LINE
  8
PLAN
  6
CONTINUOUS
 62
    11
  5
DA
 10
-24.927484
 20
87.902235
 30
0.0
 11
-24.616932
 21
87.359092
 31
0.0
  0
LINE
  8
PLAN
  6
CONTINUOUS
 62
    11
  5
DB
 10
-24.616932
 20
87.359092
 30
0.0
 11
-24.310875
 21
86.813285
 31
0.0
  0
LINE
  8
PLAN
  6
CONTINUOUS
 62
    11
  5
DC
 10
-24.310875
 20
86.813285
 30
0.0
 11
-24.009039
 21
86.264976
 31
0.0
  0
LINE
  8
PLAN
  6
CONTINUOUS
 62
    11
  5
DD
 10
-24.009039
 20
86.264976
 30
0.0
 11
-23.711148
 21
85.71433
 31
0.0
  0
LINE
  8
PLAN
  6
CONTINUOUS
 62
    11
  5
DE
 10
-23.711148
 20
85.71433
 30
0.0
 11
-23.436197
 21
85.20376
 31
0.0
  0
LINE
  8
PLAN
  6
CONTINUOUS
 62
    11
  5
DF
 10
-23.436197
 20
85.20376
 30
0.0
 11
-23.161031
 21
84.693292
 31
0.0
  0
LINE
  8
PLAN
  6
CONTINUOUS
 62
    11
  5
E0
 10
-23.161031
 20
84.693292
 30
0.0
 11
-22.887805
 21
84.181897
 31
0.0
  0
LINE
  8
PLAN
  6
CONTINUOUS
 62
    11
  5
E1
 10
-22.887805
 20
84.181897
 30
0.0
 11
-22.618671
 21
83.668542
 31
0.0
  0
LINE
  8
PLAN
  6
CONTINUOUS
 62
    11
  5
E2
 10
-22.618671
 20
83.668542
 30
0.0
 11
-22.355785
 21
83.152198
 31
0.0
  0
LINE
  8
PLAN
  6
CONTINUOUS
 62
    11
  5
E3
 10
-22.355785
 20
83.152198
 30
0.0
 11
-22.101301
 21
82.631832
 31
0.0
  0
LINE
  8
PLAN
  6
CONTINUOUS
 62
    11
  5
E4
 10
-22.101301
 20
82.631832
 30
0.0
 11
-21.857372
 21
82.106414
 31
0.0
  0
LINE
  8
PLAN
  6
CONTINUOUS
 62
    11
  5
E5
 10
-21.857372
 20
82.106414
 30
0.0
 11
-21.626153
 21
81.574913
 31
0.0
  0
LINE
  8
PLAN
  6
CONTINUOUS
 62
    11
  5
E6
 10
-21.626153
 20
81.574913
 30
0.0
 11
-21.409799
 21
81.036297
 31
0.0
  0
LINE
  8
PLAN
  6
CONTINUOUS
 62
    11
  5
E7
 10
-21.409799
 20
81.036297
 30
0.0
 11
-21.210462
 21
80.489537
 31
0.0
  0
LINE
  8
PLAN
  6
CONTINUOUS
 62
    11
  5
E8
 10
-21.210462
 20
80.489537
 30
0.0
 11
-20.913192
 21
79.604065
 31
0.0
  0
LINE
  8
PLAN
  6
CONTINUOUS
 62
    11
  5
E9
 10
-20.913192
 20
79.604065
 30
0.0
 11
-20.630363
 21
78.714733
 31
0.0
  0
LINE
  8
PLAN
  6
CONTINUOUS
 62
    11
  5
EA
 10
-20.630363
 20
78.714733
 30
0.0
 11
-20.361268
 21
77.821729
 31
0.0
  0
LINE
  8
PLAN
  6
CONTINUOUS
 62
    11
  5
EB
 10
-20.361268
 20
77.821729
 30
0.0
 11
-20.105201
 21
76.925242
 31
0.0
  0
LINE
  8
PLAN
  6
CONTINUOUS
 62
    11
  5
EC
 10
-20.105201
 20
76.925242
 30
0.0
 11
-19.861454
 21
76.025461
 31
0.0
  0
LINE
  8
PLAN
  6
CONTINUOUS
 62
    11
  5
ED
 10
-19.861454
 20
76.025461
 30
0.0
 11
-19.629322
 21
75.122576
 31
0.0
  0
LINE
  8
PLAN
  6
CONTINUOUS
 62
    11
  5
EE
 10
-19.629322
 20
75.122576
 30
0.0
 11
-19.408097
 21
74.216774
 31
0.0
  0
LINE
  8
PLAN
  6
CONTINUOUS
 62
    11
  5
EF
 10
-19.408097
 20
74.216774
 30
0.0
 11
-19.197074
 21
73.308244
 31
0.0
  0
LINE
  8
PLAN
  6
CONTINUOUS
 62
    11
  5
F0
 10
-19.197074
 20
73.308244
 30
0.0
 11
-18.995545
 21
72.397177
 31
0.0
  0
LINE
  8
PLAN
  6
CONTINUOUS
 62
    11
  5
F1
 10
-18.995545
 20
72.397177
 30
0.0
 11
-18.802804
 21
71.48376
 31
0.0
  0
LINE
  8
PLAN
  6
CONTINUOUS
 62
    11
  5
F2
 10
-18.802804
 20
71.48376
 30
0.0
 11
-18.672252
 21
70.831788
 31
0.0
  0
LINE
  8
PLAN
  6
CONTINUOUS
 62
    11
  5
F3
 10
-18.672252
 20
70.831788
 30
0.0
 11
-18.549987
 21
70.1788
 31
0.0
  0
LINE
  8
PLAN
  6
CONTINUOUS
 62
    11
  5
F4
 10
-18.549987
 20
70.1788
 30
0.0
 11
-18.437061
 21
69.524669
 31
0.0
  0
LINE
  8
PLAN
  6
CONTINUOUS
 62
    11
  5
F5
 10
-18.437061
 20
69.524669
 30
0.0
 11
-18.334526
 21
68.869263
 31
0.0
  0
LINE
  8
PLAN
  6
CONTINUOUS
 62
    11
  5
F6
 10
-18.334526
 20
68.869263
 30
0.0
 11
-18.243432
 21
68.212456
 31
0.0
  0
LINE
  8
PLAN
  6
CONTINUOUS
 62
    11
  5
F7
 10
-18.243432
 20
68.212456
 30
0.0
 11
-18.164831
 21
67.554118
 31
0.0
  0
LINE
  8
PLAN
  6
CONTINUOUS
 62
    11
  5
F8
 10
-18.164831
 20
67.554118
 30
0.0
 11
-18.099774
 21
66.89412
 31
0.0
  0
LINE
  8
PLAN
  6
CONTINUOUS
 62
    11
  5
F9
 10
-18.099774
 20
66.89412
 30
0.0
 11
-18.049312
 21
66.232334
 31
0.0
  0
LINE
  8
PLAN
  6
CONTINUOUS
 62
    11
  5
FA
 10
-18.049312
 20
66.232334
 30
0.0
 11
-18.014498
 21
65.56863
 31
0.0
  0
LINE
  8
PLAN
  6
HIDDEN2
 62
    11
  5
FB
 10
-18.014498
 20
65.56863
 30
0.0
 11
-17.996382
 21
64.90288
 31
0.0
  0
LINE
  8
PLAN
  6
HIDDEN2
 62
    11
  5
FC
 10
-17.996382
 20
64.90288
 30
0.0
 11
-17.977203
 21
63.029476
 31
0.0
  0
LINE
  8
PLAN
  6
HIDDEN2
 62
    11
  5
FD
 10
-17.977203
 20
63.029476
 30
0.0
 11
-17.972519
 21
61.156419
 31
0.0
  0
LINE
  8
PLAN
  6
HIDDEN2
 62
    11
  5
FE
 10
-17.972519
 20
61.156419
 30
0.0
 11
-17.982236
 21
59.283708
 31
0.0
  0
LINE
  8
PLAN
  6
HIDDEN2
 62
    11
  5
FF
 10
-17.982236
 20
59.283708
 30
0.0
 11
-18.00626
 21
57.41134
 31
0.0
  0
LINE
  8
PLAN
  6
HIDDEN2
 62
    11
  5
100
 10
-18.00626
 20
57.41134
 30
0.0
 11
-18.044495
 21
55.539314
 31
0.0
  0
LINE
  8
PLAN
  6
HIDDEN2
 62
    11
  5
101
 10
-18.044495
 20
55.539314
 30
0.0
 11
-18.096846
 21
53.667626
 31
0.0
  0
LINE
  8
PLAN
  6
HIDDEN2
 62
    11
  5
102
 10
-18.096846
 20
53.667626
 30
0.0
 11
-18.16322
 21
51.796274
 31
0.0
  0
LINE
  8
PLAN
  6
HIDDEN2
 62
    11
  5
103
 10
-18.16322
 20
51.796274
 30
0.0
 11
-18.243522
 21
49.925256
 31
0.0
  0
LINE
  8
PLAN
  6
HIDDEN2
 62
    11
  5
104
 10
-18.243522
 20
49.925256
 30
0.0
 11
-18.337656
 21
48.054571
 31
0.0
  0
LINE
  8
PLAN
  6
HIDDEN2
 62
    11
  5
105
 10
-18.337656
 20
48.054571
 30
0.0
 11
-18.445529
 21
46.184215
 31
0.0
  0
LINE
  8
PLAN
  6
HIDDEN2
 62
    11
  5
106
 10
-18.445529
 20
46.184215
 30
0.0
 11
-18.525053
 21
45.068715
 31
0.0
  0
LINE
  8
PLAN
  6
HIDDEN2
 62
    11
  5
107
 10
-18.525053
 20
45.068715
 30
0.0
 11
-18.624804
 21
43.95573
 31
0.0
  0
LINE
  8
PLAN
  6
HIDDEN2
 62
    11
  5
108
 10
-18.624804
 20
43.95573
 30
0.0
 11
-18.742058
 21
42.844924
 31
0.0
  0
LINE
  8
PLAN
  6
HIDDEN2
 62
    11
  5
109
 10
-18.742058
 20
42.844924
 30
0.0
 11
-18.874093
 21
41.735956
 31
0.0
  0
LINE
  8
PLAN
  6
HIDDEN2
 62
    11
  5
10A
 10
-18.874093
 20
41.735956
 30
0.0
 11
-19.018187
 21
40.628488
 31
0.0
  0
LINE
  8
PLAN
  6
HIDDEN2
 62
    11
  5
10B
 10
-19.018187
 20
40.628488
 30
0.0
 11
-19.171617
 21
39.522182
 31
0.0
  0
LINE
  8
PLAN
  6
HIDDEN2
 62
    11
  5
10C
 10
-19.171617
 20
39.522182
 30
0.0
 11
-19.331662
 21
38.416699
 31
0.0
  0
LINE
  8
PLAN
  6
HIDDEN2
 62
    11
  5
10D
 10
-19.331662
 20
38.416699
 30
0.0
 11
-19.495599
 21
37.3117
 31
0.0
  0
LINE
  8
PLAN
  6
HIDDEN2
 62
    11
  5
10E
 10
-19.495599
 20
37.3117
 30
0.0
 11
-19.660706
 21
36.206846
 31
0.0
  0
LINE
  8
PLAN
  6
CONTINUOUS
 62
    11
  5
10F
 10
-19.660706
 20
36.206846
 30
0.0
 11
-19.82426
 21
35.1018
 31
0.0
  0
LINE
  8
PLAN
  6
CONTINUOUS
 62
    11
  5
110
 10
-19.82426
 20
35.1018
 30
0.0
 11
-19.955309
 21
34.210296
 31
0.0
  0
LINE
  8
PLAN
  6
CONTINUOUS
 62
    11
  5
111
 10
-19.955309
 20
34.210296
 30
0.0
 11
-20.08815
 21
33.319103
 31
0.0
  0
LINE
  8
PLAN
  6
CONTINUOUS
 62
    11
  5
112
 10
-20.08815
 20
33.319103
 30
0.0
 11
-20.224058
 21
32.428445
 31
0.0
  0
LINE
  8
PLAN
  6
CONTINUOUS
 62
    11
  5
113
 10
-20.224058
 20
32.428445
 30
0.0
 11
-20.364306
 21
31.538541
 31
0.0
  0
LINE
  8
PLAN
  6
CONTINUOUS
 62
    11
  5
114
 10
-20.364306
 20
31.538541
 30
0.0
 11
-20.51017
 21
30.649614
 31
0.0
  0
LINE
  8
PLAN
  6
CONTINUOUS
 62
    11
  5
115
 10
-20.51017
 20
30.649614
 30
0.0
 11
-20.662922
 21
29.761887
 31
0.0
  0
LINE
  8
PLAN
  6
CONTINUOUS
 62
    11
  5
116
 10
-20.662922
 20
29.761887
 30
0.0
 11
-20.823838
 21
28.875579
 31
0.0
  0
LINE
  8
PLAN
  6
CONTINUOUS
 62
    11
  5
117
 10
-20.823838
 20
28.875579
 30
0.0
 11
-20.994192
 21
27.990913
 31
0.0
  0
LINE
  8
PLAN
  6
CONTINUOUS
 62
    11
  5
118
 10
-20.994192
 20
27.990913
 30
0.0
 11
-21.175258
 21
27.108112
 31
0.0
  0
LINE
  8
PLAN
  6
CONTINUOUS
 62
    11
  5
119
 10
-21.175258
 20
27.108112
 30
0.0
 11
-21.36831
 21
26.227395
 31
0.0
  0
LINE
  8
PLAN
  6
CONTINUOUS
 62
    11
  5
11A
 10
-21.36831
 20
26.227395
 30
0.0
 11
-21.571679
 21
25.361789
 31
0.0
  0
LINE
  8
PLAN
  6
CONTINUOUS
 62
    11
  5
11B
 10
-21.571679
 20
25.361789
 30
0.0
 11
-21.787349
 21
24.499646
 31
0.0
  0
LINE
  8
PLAN
  6
CONTINUOUS
 62
    11
  5
11C
 10
-21.787349
 20
24.499646
 30
0.0
 11
-22.01382
 21
23.640545
 31
0.0
  0
LINE
  8
PLAN
  6
CONTINUOUS
 62
    11
  5
11D
 10
-22.01382
 20
23.640545
 30
0.0
 11
-22.249598
 21
22.784063
 31
0.0
  0
LINE
  8
PLAN
  6
CONTINUOUS
 62
    11
  5
11E
 10
-22.249598
 20
22.784063
 30
0.0
 11
-22.493183
 21
21.92978
 31
0.0
  0
LINE
  8
PLAN
  6
CONTINUOUS
 62
    11
  5
11F
 10
-22.493183
 20
21.92978
 30
0.0
 11
-22.743079
 21
21.077273
 31
0.0
  0
LINE
  8
PLAN
  6
CONTINUOUS
 62
    11
  5
120
 10
-22.743079
 20
21.077273
 30
0.0
 11
-22.99779
 21
20.226122
 31
0.0
  0
LINE
  8
PLAN
  6
CONTINUOUS
 62
    11
  5
121
 10
-22.99779
 20
20.226122
 30
0.0
 11
-23.255817
 21
19.375905
 31
0.0
  0
LINE
  8
PLAN
  6
CONTINUOUS
 62
    11
  5
122
 10
-23.255817
 20
19.375905
 30
0.0
 11
-23.515664
 21
18.526201
 31
0.0
  0
LINE
  8
PLAN
  6
CONTINUOUS
 62
    11
  5
123
 10
-23.515664
 20
18.526201
 30
0.0
 11
-23.775833
 21
17.676587
 31
0.0
  0
LINE
  8
PLAN
  6
CONTINUOUS
 62
    11
  5
124
 10
-23.775833
 20
17.676587
 30
0.0
 11
-23.909191
 21
17.260906
 31
0.0
  0
LINE
  8
PLAN
  6
CONTINUOUS
 62
    11
  5
125
 10
-23.909191
 20
17.260906
 30
0.0
 11
-24.052141
 21
16.848642
 31
0.0
  0
LINE
  8
PLAN
  6
CONTINUOUS
 62
    11
  5
126
 10
-24.052141
 20
16.848642
 30
0.0
 11
-24.202175
 21
16.438901
 31
0.0
  0
LINE
  8
PLAN
  6
CONTINUOUS
 62
    11
  5
127
 10
-24.202175
 20
16.438901
 30
0.0
 11
-24.356783
 21
16.030789
 31
0.0
  0
LINE
  8
PLAN
  6
CONTINUOUS
 62
    11
  5
128
 10
-24.356783
 20
16.030789
 30
0.0
 11
-24.513455
 21
15.623413
 31
0.0
  0
LINE
  8
PLAN
  6
CONTINUOUS
 62
    11
  5
129
 10
-24.513455
 20
15.623413
 30
0.0
 11
-24.669682
 21
15.215878
 31
0.0
  0
LINE
  8
PLAN
  6
CONTINUOUS
 62
    11
  5
12A
 10
-24.669682
 20
15.215878
 30
0.0
 11
-24.822954
 21
14.80729
 31
0.0
  0
LINE
  8
PLAN
  6
CONTINUOUS
 62
    11
  5
12B
 10
-24.822954
 20
14.80729
 30
0.0
 11
-24.970761
 21
14.396756
 31
0.0
  0
LINE
  8
PLAN
  6
CONTINUOUS
 62
    11
  5
12C
 10
-24.970761
 20
14.396756
 30
0.0
 11
-25.110594
 21
13.983382
 31
0.0
  0
LINE
  8
PLAN
  6
CONTINUOUS
 62
    11
  5
12D
 10
-25.110594
 20
13.983382
 30
0.0
 11
-25.239944
 21
13.566273
 31
0.0
  0
LINE
  8
PLAN
  6
CONTINUOUS
 62
    11
  5
12E
 10
-25.239944
 20
13.566273
 30
0.0
 11
-25.354519
 21
13.160765
 31
0.0
  0
LINE
  8
PLAN
  6
CONTINUOUS
 62
    11
  5
12F
 10
-25.354519
 20
13.160765
 30
0.0
 11
-25.461259
 21
12.753443
 31
0.0
  0
LINE
  8
PLAN
  6
CONTINUOUS
 62
    11
  5
130
 10
-25.461259
 20
12.753443
 30
0.0
 11
-25.561471
 21
12.344608
 31
0.0
  0
LINE
  8
PLAN
  6
CONTINUOUS
 62
    11
  5
131
 10
-25.561471
 20
12.344608
 30
0.0
 11
-25.656461
 21
11.934563
 31
0.0
  0
LINE
  8
PLAN
  6
CONTINUOUS
 62
    11
  5
132
 10
-25.656461
 20
11.934563
 30
0.0
 11
-25.747535
 21
11.523611
 31
0.0
  0
LINE
  8
PLAN
  6
CONTINUOUS
 62
    11
  5
133
 10
-25.747535
 20
11.523611
 30
0.0
 11
-25.836
 21
11.112055
 31
0.0
  0
LINE
  8
PLAN
  6
CONTINUOUS
 62
    11
  5
134
 10
-25.836
 20
11.112055
 30
0.0
 11
-25.923162
 21
10.700196
 31
0.0
  0
LINE
  8
PLAN
  6
CONTINUOUS
 62
    11
  5
135
 10
-25.923162
 20
10.700196
 30
0.0
 11
-26.010326
 21
10.288338
 31
0.0
  0
LINE
  8
PLAN
  6
CONTINUOUS
 62
    11
  5
136
 10
-26.010326
 20
10.288338
 30
0.0
 11
-26.0988
 21
9.876784
 31
0.0
  0
LINE
  8
PLAN
  6
CONTINUOUS
 62
    11
  5
137
 10
-26.0988
 20
9.876784
 30
0.0
 11
-26.189889
 21
9.465836
 31
0.0
  0
LINE
  8
PLAN
  6
CONTINUOUS
 62
    11
  5
138
 10
-26.189889
 20
9.465836
 30
0.0
 11
-26.271605
 21
9.107763
 31
0.0
  0
LINE
  8
PLAN
  6
CONTINUOUS
 62
    11
  5
139
 10
-26.271605
 20
9.107763
 30
0.0
 11
-26.354334
 21
8.749912
 31
0.0
  0
LINE
  8
PLAN
  6
CONTINUOUS
 62
    11
  5
13A
 10
-26.354334
 20
8.749912
 30
0.0
 11
-26.437456
 21
8.392148
 31
0.0
  0
LINE
  8
PLAN
  6
CONTINUOUS
 62
    11
  5
13B
 10
-26.437456
 20
8.392148
 30
0.0
 11
-26.52035
 21
8.034335
 31
0.0
  0
LINE
  8
PLAN
  6
CONTINUOUS
 62
    11
  5
13C
 10
-26.52035
 20
8.034335
 30
0.0
 11
-26.602398
 21
7.676335
 31
0.0
  0
LINE
  8
PLAN
  6
CONTINUOUS
 62
    11
  5
13D
 10
-26.602398
 20
7.676335
 30
0.0
 11
-26.68298
 21
7.318012
 31
0.0
  0
LINE
  8
PLAN
  6
CONTINUOUS
 62
    11
  5
13E
 10
-26.68298
 20
7.318012
 30
0.0
 11
-26.761475
 21
6.959232
 31
0.0
  0
LINE
  8
PLAN
  6
CONTINUOUS
 62
    11
  5
13F
 10
-26.761475
 20
6.959232
 30
0.0
 11
-26.837264
 21
6.599856
 31
0.0
  0
LINE
  8
PLAN
  6
CONTINUOUS
 62
    11
  5
140
 10
-26.837264
 20
6.599856
 30
0.0
 11
-26.909727
 21
6.23975
 31
0.0
  0
LINE
  8
PLAN
  6
CONTINUOUS
 62
    11
  5
141
 10
-26.909727
 20
6.23975
 30
0.0
 11
-26.978244
 21
5.878776
 31
0.0
  0
LINE
  8
PLAN
  6
CONTINUOUS
 62
    11
  5
142
 10
-26.978244
 20
5.878776
 30
0.0
 11
-27.036556
 21
5.560489
 31
0.0
  0
LINE
  8
PLAN
  6
CONTINUOUS
 62
    11
  5
143
 10
-27.036556
 20
5.560489
 30
0.0
 11
-27.094148
 21
5.242099
 31
0.0
  0
LINE
  8
PLAN
  6
CONTINUOUS
 62
    11
  5
144
 10
-27.094148
 20
5.242099
 30
0.0
 11
-27.150242
 21
4.923495
 31
0.0
  0
LINE
  8
PLAN
  6
CONTINUOUS
 62
    11
  5
145
 10
-27.150242
 20
4.923495
 30
0.0
 11
-27.204061
 21
4.604566
 31
0.0
  0
LINE
  8
PLAN
  6
CONTINUOUS
 62
    11
  5
146
 10
-27.204061
 20
4.604566
 30
0.0
 11
-27.254828
 21
4.285201
 31
0.0
  0
LINE
  8
PLAN
  6
CONTINUOUS
 62
    11
  5
147
 10
-27.254828
 20
4.285201
 30
0.0
 11
-27.301766
 21
3.965289
 31
0.0
  0
LINE
  8
PLAN
  6
CONTINUOUS
 62
    11
  5
148
 10
-27.301766
 20
3.965289
 30
0.0
 11
-27.344097
 21
3.644718
 31
0.0
  0
LINE
  8
PLAN
  6
CONTINUOUS
 62
    11
  5
149
 10
-27.344097
 20
3.644718
 30
0.0
 11
-27.381044
 21
3.323378
 31
0.0
  0
LINE
  8
PLAN
  6
CONTINUOUS
 62
    11
  5
14A
 10
-27.381044
 20
3.323378
 30
0.0
 11
-27.41183
 21
3.001157
 31
0.0
  0
LINE
  8
PLAN
  6
CONTINUOUS
 62
    11
  5
14B
 10
-27.41183
 20
3.001157
 30
0.0
 11
-27.435677
 21
2.677945
 31
0.0
  0
LINE
  8
PLAN
  6
CONTINUOUS
 62
     5
  5
14C
 10
-41.91636
 20
65.031731
 30
0.0
 11
-41.828915
 21
65.436792
 31
0.0
  0
LINE
  8
PLAN
  6
CONTINUOUS
 62
     5
  5
14D
 10
-41.828915
 20
65.436792
 30
0.0
 11
-41.742872
 21
65.84216
 31
0.0
  0
LINE
  8
PLAN
  6
CONTINUOUS
 62
     5
  5
14E
 10
-41.742872
 20
65.84216
 30
0.0
 11
-41.657632
 21
66.247703
 31
0.0
  0
LINE
  8
PLAN
  6
CONTINUOUS
 62
     5
  5
14F
 10
-41.657632
 20
66.247703
 30
0.0
 11
-41.572592
 21
66.653289
 31
0.0
  0
LINE
  8
PLAN
  6
CONTINUOUS
 62
     5
  5
150
 10
-41.572592
 20
66.653289
 30
0.0
 11
-41.487151
 21
67.058788
 31
0.0
  0
LINE
  8
PLAN
  6
CONTINUOUS
 62
     5
  5
151
 10
-41.487151
 20
67.058788
 30
0.0
 11
-41.400708
 21
67.464068
 31
0.0
  0
LINE
  8
PLAN
  6
CONTINUOUS
 62
     5
  5
152
 10
-41.400708
 20
67.464068
 30
0.0
 11
-41.312661
 21
67.868998
 31
0.0
  0
LINE
  8
PLAN
  6
CONTINUOUS
 62
     5
  5
153
 10
-41.312661
 20
67.868998
 30
0.0
 11
-41.222409
 21
68.273447
 31
0.0
  0
LINE
  8
PLAN
  6
CONTINUOUS
 62
     5
  5
154
 10
-41.222409
 20
68.273447
 30
0.0
 11
-41.129351
 21
68.677284
 31
0.0
  0
LINE
  8
PLAN
  6
CONTINUOUS
 62
     5
  5
155
 10
-41.129351
 20
68.677284
 30
0.0
 11
-41.032886
 21
69.080377
 31
0.0
  0
LINE
  8
PLAN
  6
CONTINUOUS
 62
     5
  5
156
 10
-41.032886
 20
69.080377
 30
0.0
 11
-40.901
 21
69.621914
 31
0.0
  0
LINE
  8
PLAN
  6
CONTINUOUS
 62
     5
  5
157
 10
-40.901
 20
69.621914
 30
0.0
 11
-40.769266
 21
70.163492
 31
0.0
  0
LINE
  8
PLAN
  6
CONTINUOUS
 62
     5
  5
158
 10
-40.769266
 20
70.163492
 30
0.0
 11
-40.636769
 21
70.704868
 31
0.0
  0
LINE
  8
PLAN
  6
CONTINUOUS
 62
     5
  5
159
 10
-40.636769
 20
70.704868
 30
0.0
 11
-40.502594
 21
71.245801
 31
0.0
  0
LINE
  8
PLAN
  6
CONTINUOUS
 62
     5
  5
15A
 10
-40.502594
 20
71.245801
 30
0.0
 11
-40.365825
 21
71.78605
 31
0.0
  0
LINE
  8
PLAN
  6
CONTINUOUS
 62
     5
  5
15B
 10
-40.365825
 20
71.78605
 30
0.0
 11
-40.225548
 21
72.325373
 31
0.0
  0
LINE
  8
PLAN
  6
CONTINUOUS
 62
     5
  5
15C
 10
-40.225548
 20
72.325373
 30
0.0
 11
-40.080846
 21
72.863528
 31
0.0
  0
LINE
  8
PLAN
  6
CONTINUOUS
 62
     5
  5
15D
 10
-40.080846
 20
72.863528
 30
0.0
 11
-39.930804
 21
73.400275
 31
0.0
  0
LINE
  8
PLAN
  6
CONTINUOUS
 62
     5
  5
15E
 10
-39.930804
 20
73.400275
 30
0.0
 11
-39.774507
 21
73.93537
 31
0.0
  0
LINE
  8
PLAN
  6
CONTINUOUS
 62
     5
  5
15F
 10
-39.774507
 20
73.93537
 30
0.0
 11
-39.61104
 21
74.468574
 31
0.0
  0
LINE
  8
PLAN
  6
CONTINUOUS
 62
     5
  5
160
 10
-39.61104
 20
74.468574
 30
0.0
 11
-39.478964
 21
74.879039
 31
0.0
  0
LINE
  8
PLAN
  6
CONTINUOUS
 62
     5
  5
161
 10
-39.478964
 20
74.879039
 30
0.0
 11
-39.341648
 21
75.287501
 31
0.0
  0
LINE
  8
PLAN
  6
CONTINUOUS
 62
     5
  5
162
 10
-39.341648
 20
75.287501
 30
0.0
 11
-39.199253
 21
75.694021
 31
0.0
  0
LINE
  8
PLAN
  6
CONTINUOUS
 62
     5
  5
163
 10
-39.199253
 20
75.694021
 30
0.0
 11
-39.051937
 21
76.09866
 31
0.0
  0
LINE
  8
PLAN
  6
CONTINUOUS
 62
     5
  5
164
 10
-39.051937
 20
76.09866
 30
0.0
 11
-38.89986
 21
76.501479
 31
0.0
  0
LINE
  8
PLAN
  6
CONTINUOUS
 62
     5
  5
165
 10
-38.89986
 20
76.501479
 30
0.0
 11
-38.743182
 21
76.90254
 31
0.0
  0
LINE
  8
PLAN
  6
CONTINUOUS
 62
     5
  5
166
 10
-38.743182
 20
76.90254
 30
0.0
 11
-38.582062
 21
77.301902
 31
0.0
  0
LINE
  8
PLAN
  6
CONTINUOUS
 62
     5
  5
167
 10
-38.582062
 20
77.301902
 30
0.0
 11
-38.41666
 21
77.699628
 31
0.0
  0
LINE
  8
PLAN
  6
CONTINUOUS
 62
     5
  5
168
 10
-38.41666
 20
77.699628
 30
0.0
 11
-38.247135
 21
78.095777
 31
0.0
  0
LINE
  8
PLAN
  6
CONTINUOUS
 62
     5
  5
169
 10
-38.247135
 20
78.095777
 30
0.0
 11
-38.073646
 21
78.490412
 31
0.0
  0
LINE
  8
PLAN
  6
CONTINUOUS
 62
     5
  5
16A
 10
-38.073646
 20
78.490412
 30
0.0
 11
-37.998805
 21
78.650324
 31
0.0
  0
LINE
  8
PLAN
  6
CONTINUOUS
 62
     5
  5
16B
 10
-37.998805
 20
78.650324
 30
0.0
 11
-37.91865
 21
78.806968
 31
0.0
  0
LINE
  8
PLAN
  6
CONTINUOUS
 62
     5
  5
16C
 10
-37.91865
 20
78.806968
 30
0.0
 11
-37.833752
 21
78.960694
 31
0.0
  0
LINE
  8
PLAN
  6
CONTINUOUS
 62
     5
  5
16D
 10
-37.833752
 20
78.960694
 30
0.0
 11
-37.744681
 21
79.111853
 31
0.0
  0
LINE
  8
PLAN
  6
CONTINUOUS
 62
     5
  5
16E
 10
-37.744681
 20
79.111853
 30
0.0
 11
-37.652008
 21
79.260797
 31
0.0
  0
LINE
  8
PLAN
  6
CONTINUOUS
 62
     5
  5
16F
 10
-37.652008
 20
79.260797
 30
0.0
 11
-37.556302
 21
79.407875
 31
0.0
  0
LINE
  8
PLAN
  6
CONTINUOUS
 62
     5
  5
170
 10
-37.556302
 20
79.407875
 30
0.0
 11
-37.458136
 21
79.55344
 31
0.0
  0
LINE
  8
PLAN
  6
CONTINUOUS
 62
     5
  5
171
 10
-37.458136
 20
79.55344
 30
0.0
 11
-37.358078
 21
79.697841
 31
0.0
  0
LINE
  8
PLAN
  6
CONTINUOUS
 62
     5
  5
172
 10
-37.358078
 20
79.697841
 30
0.0
 11
-37.2567
 21
79.84143
 31
0.0
  0
LINE
  8
PLAN
  6
CONTINUOUS
 62
     5
  5
173
 10
-37.2567
 20
79.84143
 30
0.0
 11
-37.154571
 21
79.984557
 31
0.0
  0
LINE
  8
PLAN
  6
CONTINUOUS
 62
     5
  5
174
 10
-37.154571
 20
79.984557
 30
0.0
 11
-37.018599
 21
80.172801
 31
0.0
  0
LINE
  8
PLAN
  6
CONTINUOUS
 62
     5
  5
175
 10
-37.018599
 20
80.172801
 30
0.0
 11
-36.880914
 21
80.359678
 31
0.0
  0
LINE
  8
PLAN
  6
CONTINUOUS
 62
     5
  5
176
 10
-36.880914
 20
80.359678
 30
0.0
 11
-36.741432
 21
80.545121
 31
0.0
  0
LINE
  8
PLAN
  6
CONTINUOUS
 62
     5
  5
177
 10
-36.741432
 20
80.545121
 30
0.0
 11
-36.600071
 21
80.729064
 31
0.0
  0
LINE
  8
PLAN
  6
CONTINUOUS
 62
     5
  5
178
 10
-36.600071
 20
80.729064
 30
0.0
 11
-36.456747
 21
80.91144
 31
0.0
  0
LINE
  8
PLAN
  6
CONTINUOUS
 62
     5
  5
179
 10
-36.456747
 20
80.91144
 30
0.0
 11
-36.311374
 21
81.092182
 31
0.0
  0
LINE
  8
PLAN
  6
CONTINUOUS
 62
     5
  5
17A
 10
-36.311374
 20
81.092182
 30
0.0
 11
-36.163871
 21
81.271223
 31
0.0
  0
LINE
  8
PLAN
  6
CONTINUOUS
 62
     5
  5
17B
 10
-36.163871
 20
81.271223
 30
0.0
 11
-36.014153
 21
81.448496
 31
0.0
  0
LINE
  8
PLAN
  6
CONTINUOUS
 62
     5
  5
17C
 10
-36.014153
 20
81.448496
 30
0.0
 11
-35.862135
 21
81.623935
 31
0.0
  0
LINE
  8
PLAN
  6
CONTINUOUS
 62
     5
  5
17D
 10
-35.862135
 20
81.623935
 30
0.0
 11
-35.707736
 21
81.797472
 31
0.0
  0
LINE
  8
PLAN
  6
CONTINUOUS
 62
     5
  5
17E
 10
-35.707736
 20
81.797472
 30
0.0
 11
-35.607724
 21
81.902796
 31
0.0
  0
LINE
  8
PLAN
  6
CONTINUOUS
 62
     5
  5
17F
 10
-35.607724
 20
81.902796
 30
0.0
 11
-35.503353
 21
82.00335
 31
0.0
  0
LINE
  8
PLAN
  6
CONTINUOUS
 62
     5
  5
180
 10
-35.503353
 20
82.00335
 30
0.0
 11
-35.39568
 21
82.100291
 31
0.0
  0
LINE
  8
PLAN
  6
CONTINUOUS
 62
     5
  5
181
 10
-35.39568
 20
82.100291
 30
0.0
 11
-35.285761
 21
82.194775
 31
0.0
  0
LINE
  8
PLAN
  6
CONTINUOUS
 62
     5
  5
182
 10
-35.285761
 20
82.194775
 30
0.0
 11
-35.174654
 21
82.287958
 31
0.0
  0
LINE
  8
PLAN
  6
CONTINUOUS
 62
     5
  5
183
 10
-35.174654
 20
82.287958
 30
0.0
 11
-35.063415
 21
82.380997
 31
0.0
  0
LINE
  8
PLAN
  6
CONTINUOUS
 62
     5
  5
184
 10
-35.063415
 20
82.380997
 30
0.0
 11
-34.953101
 21
82.475049
 31
0.0
  0
LINE
  8
PLAN
  6
CONTINUOUS
 62
     5
  5
185
 10
-34.953101
 20
82.475049
 30
0.0
 11
-34.84477
 21
82.57127
 31
0.0
  0
LINE
  8
PLAN
  6
CONTINUOUS
 62
     5
  5
186
 10
-34.84477
 20
82.57127
 30
0.0
 11
-34.739478
 21
82.670816
 31
0.0
  0
LINE
  8
PLAN
  6
CONTINUOUS
 62
     5
  5
187
 10
-34.739478
 20
82.670816
 30
0.0
 11
-34.638283
 21
82.774845
 31
0.0
  0
LINE
  8
PLAN
  6
CONTINUOUS
 62
     5
  5
188
 10
-34.638283
 20
82.774845
 30
0.0
 11
-34.538422
 21
82.882947
 31
0.0
  0
LINE
  8
PLAN
  6
CONTINUOUS
 62
     5
  5
189
 10
-34.538422
 20
82.882947
 30
0.0
 11
-34.439232
 21
82.991575
 31
0.0
  0
LINE
  8
PLAN
  6
CONTINUOUS
 62
     5
  5
18A
 10
-34.439232
 20
82.991575
 30
0.0
 11
-34.341241
 21
83.101143
 31
0.0
  0
LINE
  8
PLAN
  6
CONTINUOUS
 62
     5
  5
18B
 10
-34.341241
 20
83.101143
 30
0.0
 11
-34.244974
 21
83.212064
 31
0.0
  0
LINE
  8
PLAN
  6
CONTINUOUS
 62
     5
  5
18C
 10
-34.244974
 20
83.212064
 30
0.0
 11
-34.150961
 21
83.324751
 31
0.0
  0
LINE
  8
PLAN
  6
CONTINUOUS
 62
     5
  5
18D
 10
-34.150961
 20
83.324751
 30
0.0
 11
-34.059727
 21
83.439618
 31
0.0
  0
LINE
  8
PLAN
  6
CONTINUOUS
 62
     5
  5
18E
 10
-34.059727
 20
83.439618
 30
0.0
 11
-33.971801
 21
83.557079
 31
0.0
  0
LINE
  8
PLAN
  6
CONTINUOUS
 62
     5
  5
18F
 10
-33.971801
 20
83.557079
 30
0.0
 11
-33.88771
 21
83.677546
 31
0.0
  0
LINE
  8
PLAN
  6
CONTINUOUS
 62
     5
  5
190
 10
-33.88771
 20
83.677546
 30
0.0
 11
-33.80798
 21
83.801434
 31
0.0
  0
LINE
  8
PLAN
  6
CONTINUOUS
 62
     5
  5
191
 10
-33.80798
 20
83.801434
 30
0.0
 11
-33.73314
 21
83.929156
 31
0.0
  0
LINE
  8
PLAN
  6
CONTINUOUS
 62
     5
  5
192
 10
-33.73314
 20
83.929156
 30
0.0
 11
-33.676312
 21
84.040802
 31
0.0
  0
LINE
  8
PLAN
  6
CONTINUOUS
 62
     5
  5
193
 10
-33.676312
 20
84.040802
 30
0.0
 11
-33.62743
 21
84.155094
 31
0.0
  0
LINE
  8
PLAN
  6
CONTINUOUS
 62
     5
  5
194
 10
-33.62743
 20
84.155094
 30
0.0
 11
-33.584988
 21
84.271529
 31
0.0
  0
LINE
  8
PLAN
  6
CONTINUOUS
 62
     5
  5
195
 10
-33.584988
 20
84.271529
 30
0.0
 11
-33.547482
 21
84.389608
 31
0.0
  0
LINE
  8
PLAN
  6
CONTINUOUS
 62
     5
  5
196
 10
-33.547482
 20
84.389608
 30
0.0
 11
-33.513407
 21
84.508829
 31
0.0
  0
LINE
  8
PLAN
  6
CONTINUOUS
 62
     5
  5
197
 10
-33.513407
 20
84.508829
 30
0.0
 11
-33.481258
 21
84.628691
 31
0.0
  0
LINE
  8
PLAN
  6
CONTINUOUS
 62
     5
  5
198
 10
-33.481258
 20
84.628691
 30
0.0
 11
-33.449529
 21
84.748694
 31
0.0
  0
LINE
  8
PLAN
  6
CONTINUOUS
 62
     5
  5
199
 10
-33.449529
 20
84.748694
 30
0.0
 11
-33.416718
 21
84.868335
 31
0.0
  0
LINE
  8
PLAN
  6
CONTINUOUS
 62
     5
  5
19A
 10
-33.416718
 20
84.868335
 30
0.0
 11
-33.381318
 21
84.987115
 31
0.0
  0
LINE
  8
PLAN
  6
CONTINUOUS
 62
     5
  5
19B
 10
-33.381318
 20
84.987115
 30
0.0
 11
-33.341825
 21
85.104533
 31
0.0
  0
LINE
  8
PLAN
  6
CONTINUOUS
 62
     5
  5
19C
 10
-33.341825
 20
85.104533
 30
0.0
 11
-33.284924
 21
85.255639
 31
0.0
  0
LINE
  8
PLAN
  6
CONTINUOUS
 62
     5
  5
19D
 10
-33.284924
 20
85.255639
 30
0.0
 11
-33.22461
 21
85.40544
 31
0.0
  0
LINE
  8
PLAN
  6
CONTINUOUS
 62
     5
  5
19E
 10
-33.22461
 20
85.40544
 30
0.0
 11
-33.1621
 21
85.554402
 31
0.0
  0
LINE
  8
PLAN
  6
CONTINUOUS
 62
     5
  5
19F
 10
-33.1621
 20
85.554402
 30
0.0
 11
-33.09861
 21
85.70299
 31
0.0
  0
LINE
  8
PLAN
  6
CONTINUOUS
 62
     5
  5
1A0
 10
-33.09861
 20
85.70299
 30
0.0
 11
-33.03536
 21
85.851669
 31
0.0
  0
LINE
  8
PLAN
  6
CONTINUOUS
 62
     5
  5
1A1
 10
-33.03536
 20
85.851669
 30
0.0
 11
-32.973566
 21
86.000904
 31
0.0
  0
LINE
  8
PLAN
  6
CONTINUOUS
 62
     5
  5
1A2
 10
-32.973566
 20
86.000904
 30
0.0
 11
-32.914446
 21
86.151162
 31
0.0
  0
LINE
  8
PLAN
  6
CONTINUOUS
 62
     5
  5
1A3
 10
-32.914446
 20
86.151162
 30
0.0
 11
-32.859217
 21
86.302907
 31
0.0
  0
LINE
  8
PLAN
  6
CONTINUOUS
 62
     5
  5
1A4
 10
-32.859217
 20
86.302907
 30
0.0
 11
-32.809097
 21
86.456606
 31
0.0
  0
LINE
  8
PLAN
  6
CONTINUOUS
 62
     5
  5
1A5
 10
-32.809097
 20
86.456606
 30
0.0
 11
-32.765303
 21
86.612722
 31
0.0
  0
LINE
  8
PLAN
  6
CONTINUOUS
 62
     5
  5
1A6
 10
-32.765303
 20
86.612722
 30
0.0
 11
-32.728022
 21
86.780059
 31
0.0
  0
LINE
  8
PLAN
  6
CONTINUOUS
 62
     5
  5
1A7
 10
-32.728022
 20
86.780059
 30
0.0
 11
-32.699759
 21
86.948681
 31
0.0
  0
LINE
  8
PLAN
  6
CONTINUOUS
 62
     5
  5
1A8
 10
-32.699759
 20
86.948681
 30
0.0
 11
-32.678231
 21
87.118261
 31
0.0
  0
LINE
  8
PLAN
  6
CONTINUOUS
 62
     5
  5
1A9
 10
-32.678231
 20
87.118261
 30
0.0
 11
-32.661156
 21
87.288475
 31
0.0
  0
LINE
  8
PLAN
  6
CONTINUOUS
 62
     5
  5
1AA
 10
-32.661156
 20
87.288475
 30
0.0
 11
-32.646251
 21
87.458998
 31
0.0
  0
LINE
  8
PLAN
  6
CONTINUOUS
 62
     5
  5
1AB
 10
-32.646251
 20
87.458998
 30
0.0
 11
-32.631232
 21
87.629506
 31
0.0
  0
LINE
  8
PLAN
  6
CONTINUOUS
 62
     5
  5
1AC
 10
-32.631232
 20
87.629506
 30
0.0
 11
-32.613817
 21
87.799671
 31
0.0
  0
LINE
  8
PLAN
  6
CONTINUOUS
 62
     5
  5
1AD
 10
-32.613817
 20
87.799671
 30
0.0
 11
-32.591723
 21
87.969171
 31
0.0
  0
LINE
  8
PLAN
  6
CONTINUOUS
 62
     5
  5
1AE
 10
-32.591723
 20
87.969171
 30
0.0
 11
-32.562667
 21
88.13768
 31
0.0
  0
LINE
  8
PLAN
  6
CONTINUOUS
 62
     5
  5
1AF
 10
-32.562667
 20
88.13768
 30
0.0
 11
-32.524366
 21
88.304872
 31
0.0
  0
LINE
  8
PLAN
  6
CONTINUOUS
 62
     5
  5
1B0
 10
-32.524366
 20
88.304872
 30
0.0
 11
-32.462315
 21
88.528474
 31
0.0
  0
LINE
  8
PLAN
  6
CONTINUOUS
 62
     5
  5
1B1
 10
-32.462315
 20
88.528474
 30
0.0
 11
-32.394659
 21
88.750082
 31
0.0
  0
LINE
  8
PLAN
  6
CONTINUOUS
 62
     5
  5
1B2
 10
-32.394659
 20
88.750082
 30
0.0
 11
-32.322207
 21
88.969985
 31
0.0
  0
LINE
  8
PLAN
  6
CONTINUOUS
 62
     5
  5
1B3
 10
-32.322207
 20
88.969985
 30
0.0
 11
-32.245768
 21
89.188469
 31
0.0
  0
LINE
  8
PLAN
  6
CONTINUOUS
 62
     5
  5
1B4
 10
-32.245768
 20
89.188469
 30
0.0
 11
-32.16615
 21
89.405823
 31
0.0
  0
LINE
  8
PLAN
  6
CONTINUOUS
 62
     5
  5
1B5
 10
-32.16615
 20
89.405823
 30
0.0
 11
-32.084163
 21
89.622334
 31
0.0
  0
LINE
  8
PLAN
  6
CONTINUOUS
 62
     5
  5
1B6
 10
-32.084163
 20
89.622334
 30
0.0
 11
-32.000616
 21
89.838291
 31
0.0
  0
LINE
  8
PLAN
  6
CONTINUOUS
 62
     5
  5
1B7
 10
-32.000616
 20
89.838291
 30
0.0
 11
-31.916318
 21
90.05398
 31
0.0
  0
LINE
  8
PLAN
  6
CONTINUOUS
 62
     5
  5
1B8
 10
-31.916318
 20
90.05398
 30
0.0
 11
-31.832077
 21
90.26969
 31
0.0
  0
LINE
  8
PLAN
  6
CONTINUOUS
 62
     5
  5
1B9
 10
-31.832077
 20
90.26969
 30
0.0
 11
-31.748703
 21
90.485708
 31
0.0
  0
LINE
  8
PLAN
  6
CONTINUOUS
 62
     5
  5
1BA
 10
-31.748703
 20
90.485708
 30
0.0
 11
-31.715929
 21
90.571504
 31
0.0
  0
LINE
  8
PLAN
  6
CONTINUOUS
 62
     5
  5
1BB
 10
-31.715929
 20
90.571504
 30
0.0
 11
-31.682964
 21
90.657214
 31
0.0
  0
LINE
  8
PLAN
  6
CONTINUOUS
 62
     5
  5
1BC
 10
-31.682964
 20
90.657214
 30
0.0
 11
-31.649466
 21
90.742683
 31
0.0
  0
LINE
  8
PLAN
  6
CONTINUOUS
 62
     5
  5
1BD
 10
-31.649466
 20
90.742683
 30
0.0
 11
-31.615094
 21
90.827758
 31
0.0
  0
LINE
  8
PLAN
  6
CONTINUOUS
 62
     5
  5
1BE
 10
-31.615094
 20
90.827758
 30
0.0
 11
-31.579504
 21
90.912282
 31
0.0
  0
LINE
  8
PLAN
  6
CONTINUOUS
 62
     5
  5
1BF
 10
-31.579504
 20
90.912282
 30
0.0
 11
-31.542355
 21
90.996103
 31
0.0
  0
LINE
  8
PLAN
  6
CONTINUOUS
 62
     5
  5
1C0
 10
-31.542355
 20
90.996103
 30
0.0
 11
-31.503304
 21
91.079064
 31
0.0
  0
LINE
  8
PLAN
  6
CONTINUOUS
 62
     5
  5
1C1
 10
-31.503304
 20
91.079064
 30
0.0
 11
-31.46201
 21
91.161012
 31
0.0
  0
LINE
  8
PLAN
  6
CONTINUOUS
 62
     5
  5
1C2
 10
-31.46201
 20
91.161012
 30
0.0
 11
-31.418129
 21
91.241792
 31
0.0
  0
LINE
  8
PLAN
  6
CONTINUOUS
 62
     5
  5
1C3
 10
-31.418129
 20
91.241792
 30
0.0
 11
-31.371321
 21
91.32125
 31
0.0
  0
LINE
  8
PLAN
  6
CONTINUOUS
 62
     5
  5
1C4
 10
-31.371321
 20
91.32125
 30
0.0
 11
-31.332352
 21
91.384725
 31
0.0
  0
LINE
  8
PLAN
  6
CONTINUOUS
 62
     5
  5
1C5
 10
-31.332352
 20
91.384725
 30
0.0
 11
-31.293023
 21
91.44789
 31
0.0
  0
LINE
  8
PLAN
  6
CONTINUOUS
 62
     5
  5
1C6
 10
-31.293023
 20
91.44789
 30
0.0
 11
-31.252725
 21
91.510223
 31
0.0
  0
LINE
  8
PLAN
  6
CONTINUOUS
 62
     5
  5
1C7
 10
-31.252725
 20
91.510223
 30
0.0
 11
-31.210848
 21
91.571202
 31
0.0
  0
LINE
  8
PLAN
  6
CONTINUOUS
 62
     5
  5
1C8
 10
-31.210848
 20
91.571202
 30
0.0
 11
-31.166784
 21
91.630303
 31
0.0
  0
LINE
  8
PLAN
  6
CONTINUOUS
 62
     5
  5
1C9
 10
-31.166784
 20
91.630303
 30
0.0
 11
-31.119923
 21
91.687005
 31
0.0
  0
LINE
  8
PLAN
  6
CONTINUOUS
 62
     5
  5
1CA
 10
-31.119923
 20
91.687005
 30
0.0
 11
-31.069658
 21
91.740784
 31
0.0
  0
LINE
  8
PLAN
  6
CONTINUOUS
 62
     5
  5
1CB
 10
-31.069658
 20
91.740784
 30
0.0
 11
-31.015378
 21
91.791119
 31
0.0
  0
LINE
  8
PLAN
  6
CONTINUOUS
 62
     5
  5
1CC
 10
-31.015378
 20
91.791119
 30
0.0
 11
-30.956476
 21
91.837486
 31
0.0
  0
LINE
  8
PLAN
  6
CONTINUOUS
 62
     5
  5
1CD
 10
-30.956476
 20
91.837486
 30
0.0
 11
-30.892341
 21
91.879363
 31
0.0
  0
LINE
  8
PLAN
  6
CONTINUOUS
 62
     5
  5
1CE
 10
-30.892341
 20
91.879363
 30
0.0
 11
-30.81305
 21
91.921899
 31
0.0
  0
LINE
  8
PLAN
  6
CONTINUOUS
 62
     5
  5
1CF
 10
-30.81305
 20
91.921899
 30
0.0
 11
-30.731994
 21
91.957729
 31
0.0
  0
LINE
  8
PLAN
  6
CONTINUOUS
 62
     5
  5
1D0
 10
-30.731994
 20
91.957729
 30
0.0
 11
-30.649388
 21
91.987681
 31
0.0
  0
LINE
  8
PLAN
  6
CONTINUOUS
 62
     5
  5
1D1
 10
-30.649388
 20
91.987681
 30
0.0
 11
-30.565453
 21
92.012581
 31
0.0
  0
LINE
  8
PLAN
  6
CONTINUOUS
 62
     5
  5
1D2
 10
-30.565453
 20
92.012581
 30
0.0
 11
-30.480405
 21
92.033257
 31
0.0
  0
LINE
  8
PLAN
  6
CONTINUOUS
 62
     5
  5
1D3
 10
-30.480405
 20
92.033257
 30
0.0
 11
-30.394462
 21
92.050537
 31
0.0
  0
LINE
  8
PLAN
  6
CONTINUOUS
 62
     5
  5
1D4
 10
-30.394462
 20
92.050537
 30
0.0
 11
-30.307843
 21
92.065248
 31
0.0
  0
LINE
  8
PLAN
  6
CONTINUOUS
 62
     5
  5
1D5
 10
-30.307843
 20
92.065248
 30
0.0
 11
-30.220765
 21
92.078217
 31
0.0
  0
LINE
  8
PLAN
  6
CONTINUOUS
 62
     5
  5
1D6
 10
-30.220765
 20
92.078217
 30
0.0
 11
-30.133446
 21
92.090271
 31
0.0
  0
LINE
  8
PLAN
  6
CONTINUOUS
 62
     5
  5
1D7
 10
-30.133446
 20
92.090271
 30
0.0
 11
-30.046104
 21
92.102239
 31
0.0
  0
LINE
  8
PLAN
  6
CONTINUOUS
 62
     5
  5
1D8
 10
-18.175848
 20
65.031731
 30
0.0
 11
-18.263294
 21
65.436792
 31
0.0
  0
LINE
  8
PLAN
  6
CONTINUOUS
 62
     5
  5
1D9
 10
-18.263294
 20
65.436792
 30
0.0
 11
-18.349336
 21
65.84216
 31
0.0
  0
LINE
  8
PLAN
  6
CONTINUOUS
 62
     5
  5
1DA
 10
-18.349336
 20
65.84216
 30
0.0
 11
-18.434577
 21
66.247703
 31
0.0
  0
LINE
  8
PLAN
  6
CONTINUOUS
 62
     5
  5
1DB
 10
-18.434577
 20
66.247703
 30
0.0
 11
-18.519617
 21
66.653289
 31
0.0
  0
LINE
  8
PLAN
  6
CONTINUOUS
 62
     5
  5
1DC
 10
-18.519617
 20
66.653289
 30
0.0
 11
-18.605058
 21
67.058788
 31
0.0
  0
LINE
  8
PLAN
  6
CONTINUOUS
 62
     5
  5
1DD
 10
-18.605058
 20
67.058788
 30
0.0
 11
-18.691501
 21
67.464068
 31
0.0
  0
LINE
  8
PLAN
  6
CONTINUOUS
 62
     5
  5
1DE
 10
-18.691501
 20
67.464068
 30
0.0
 11
-18.779548
 21
67.868998
 31
0.0
  0
LINE
  8
PLAN
  6
CONTINUOUS
 62
     5
  5
1DF
 10
-18.779548
 20
67.868998
 30
0.0
 11
-18.8698
 21
68.273447
 31
0.0
  0
LINE
  8
PLAN
  6
CONTINUOUS
 62
     5
  5
1E0
 10
-18.8698
 20
68.273447
 30
0.0
 11
-18.962858
 21
68.677284
 31
0.0
  0
LINE
  8
PLAN
  6
CONTINUOUS
 62
     5
  5
1E1
 10
-18.962858
 20
68.677284
 30
0.0
 11
-19.059323
 21
69.080377
 31
0.0
  0
LINE
  8
PLAN
  6
CONTINUOUS
 62
     5
  5
1E2
 10
-19.059323
 20
69.080377
 30
0.0
 11
-19.191209
 21
69.621914
 31
0.0
  0
LINE
  8
PLAN
  6
CONTINUOUS
 62
     5
  5
1E3
 10
-19.191209
 20
69.621914
 30
0.0
 11
-19.322943
 21
70.163492
 31
0.0
  0
LINE
  8
PLAN
  6
CONTINUOUS
 62
     5
  5
1E4
 10
-19.322943
 20
70.163492
 30
0.0
 11
-19.45544
 21
70.704868
 31
0.0
  0
LINE
  8
PLAN
  6
CONTINUOUS
 62
     5
  5
1E5
 10
-19.45544
 20
70.704868
 30
0.0
 11
-19.589615
 21
71.245801
 31
0.0
  0
LINE
  8
PLAN
  6
CONTINUOUS
 62
     5
  5
1E6
 10
-19.589615
 20
71.245801
 30
0.0
 11
-19.726383
 21
71.78605
 31
0.0
  0
LINE
  8
PLAN
  6
CONTINUOUS
 62
     5
  5
1E7
 10
-19.726383
 20
71.78605
 30
0.0
 11
-19.866661
 21
72.325373
 31
0.0
  0
LINE
  8
PLAN
  6
CONTINUOUS
 62
     5
  5
1E8
 10
-19.866661
 20
72.325373
 30
0.0
 11
-20.011363
 21
72.863528
 31
0.0
  0
LINE
  8
PLAN
  6
CONTINUOUS
 62
     5
  5
1E9
 10
-20.011363
 20
72.863528
 30
0.0
 11
-20.161405
 21
73.400275
 31
0.0
  0
LINE
  8
PLAN
  6
CONTINUOUS
 62
     5
  5
1EA
 10
-20.161405
 20
73.400275
 30
0.0
 11
-20.317702
 21
73.93537
 31
0.0
  0
LINE
  8
PLAN
  6
CONTINUOUS
 62
     5
  5
1EB
 10
-20.317702
 20
73.93537
 30
0.0
 11
-20.481169
 21
74.468574
 31
0.0
  0
LINE
  8
PLAN
  6
CONTINUOUS
 62
     5
  5
1EC
 10
-20.481169
 20
74.468574
 30
0.0
 11
-20.613245
 21
74.879039
 31
0.0
  0
LINE
  8
PLAN
  6
CONTINUOUS
 62
     5
  5
1ED
 10
-20.613245
 20
74.879039
 30
0.0
 11
-20.75056
 21
75.287501
 31
0.0
  0
LINE
  8
PLAN
  6
CONTINUOUS
 62
     5
  5
1EE
 10
-20.75056
 20
75.287501
 30
0.0
 11
-20.892956
 21
75.694021
 31
0.0
  0
LINE
  8
PLAN
  6
CONTINUOUS
 62
     5
  5
1EF
 10
-20.892956
 20
75.694021
 30
0.0
 11
-21.040272
 21
76.09866
 31
0.0
  0
LINE
  8
PLAN
  6
CONTINUOUS
 62
     5
  5
1F0
 10
-21.040272
 20
76.09866
 30
0.0
 11
-21.192348
 21
76.501479
 31
0.0
  0
LINE
  8
PLAN
  6
CONTINUOUS
 62
     5
  5
1F1
 10
-21.192348
 20
76.501479
 30
0.0
 11
-21.349027
 21
76.90254
 31
0.0
  0
LINE
  8
PLAN
  6
CONTINUOUS
 62
     5
  5
1F2
 10
-21.349027
 20
76.90254
 30
0.0
 11
-21.510147
 21
77.301902
 31
0.0
  0
LINE
  8
PLAN
  6
CONTINUOUS
 62
     5
  5
1F3
 10
-21.510147
 20
77.301902
 30
0.0
 11
-21.675549
 21
77.699628
 31
0.0
  0
LINE
  8
PLAN
  6
CONTINUOUS
 62
     5
  5
1F4
 10
-21.675549
 20
77.699628
 30
0.0
 11
-21.845074
 21
78.095777
 31
0.0
  0
LINE
  8
PLAN
  6
CONTINUOUS
 62
     5
  5
1F5
 10
-21.845074
 20
78.095777
 30
0.0
 11
-22.018563
 21
78.490412
 31
0.0
  0
LINE
  8
PLAN
  6
CONTINUOUS
 62
     5
  5
1F6
 10
-22.018563
 20
78.490412
 30
0.0
 11
-22.093404
 21
78.650324
 31
0.0
  0
LINE
  8
PLAN
  6
CONTINUOUS
 62
     5
  5
1F7
 10
-22.093404
 20
78.650324
 30
0.0
 11
-22.173559
 21
78.806968
 31
0.0
  0
LINE
  8
PLAN
  6
CONTINUOUS
 62
     5
  5
1F8
 10
-22.173559
 20
78.806968
 30
0.0
 11
-22.258457
 21
78.960694
 31
0.0
  0
LINE
  8
PLAN
  6
CONTINUOUS
 62
     5
  5
1F9
 10
-22.258457
 20
78.960694
 30
0.0
 11
-22.347528
 21
79.111853
 31
0.0
  0
LINE
  8
PLAN
  6
CONTINUOUS
 62
     5
  5
1FA
 10
-22.347528
 20
79.111853
 30
0.0
 11
-22.440201
 21
79.260797
 31
0.0
  0
LINE
  8
PLAN
  6
CONTINUOUS
 62
     5
  5
1FB
 10
-22.440201
 20
79.260797
 30
0.0
 11
-22.535906
 21
79.407875
 31
0.0
  0
LINE
  8
PLAN
  6
CONTINUOUS
 62
     5
  5
1FC
 10
-22.535906
 20
79.407875
 30
0.0
 11
-22.634073
 21
79.55344
 31
0.0
  0
LINE
  8
PLAN
  6
CONTINUOUS
 62
     5
  5
1FD
 10
-22.634073
 20
79.55344
 30
0.0
 11
-22.734131
 21
79.697841
 31
0.0
  0
LINE
  8
PLAN
  6
CONTINUOUS
 62
     5
  5
1FE
 10
-22.734131
 20
79.697841
 30
0.0
 11
-22.835509
 21
79.84143
 31
0.0
  0
LINE
  8
PLAN
  6
CONTINUOUS
 62
     5
  5
1FF
 10
-22.835509
 20
79.84143
 30
0.0
 11
-22.937637
 21
79.984557
 31
0.0
  0
LINE
  8
PLAN
  6
CONTINUOUS
 62
     5
  5
200
 10
-22.937637
 20
79.984557
 30
0.0
 11
-23.07361
 21
80.172801
 31
0.0
  0
LINE
  8
PLAN
  6
CONTINUOUS
 62
     5
  5
201
 10
-23.07361
 20
80.172801
 30
0.0
 11
-23.211295
 21
80.359678
 31
0.0
  0
LINE
  8
PLAN
  6
CONTINUOUS
 62
     5
  5
202
 10
-23.211295
 20
80.359678
 30
0.0
 11
-23.350776
 21
80.545121
 31
0.0
  0
LINE
  8
PLAN
  6
CONTINUOUS
 62
     5
  5
203
 10
-23.350776
 20
80.545121
 30
0.0
 11
-23.492137
 21
80.729064
 31
0.0
  0
LINE
  8
PLAN
  6
CONTINUOUS
 62
     5
  5
204
 10
-23.492137
 20
80.729064
 30
0.0
 11
-23.635462
 21
80.91144
 31
0.0
  0
LINE
  8
PLAN
  6
CONTINUOUS
 62
     5
  5
205
 10
-23.635462
 20
80.91144
 30
0.0
 11
-23.780834
 21
81.092182
 31
0.0
  0
LINE
  8
PLAN
  6
CONTINUOUS
 62
     5
  5
206
 10
-23.780834
 20
81.092182
 30
0.0
 11
-23.928338
 21
81.271223
 31
0.0
  0
LINE
  8
PLAN
  6
CONTINUOUS
 62
     5
  5
207
 10
-23.928338
 20
81.271223
 30
0.0
 11
-24.078056
 21
81.448496
 31
0.0
  0
LINE
  8
PLAN
  6
CONTINUOUS
 62
     5
  5
208
 10
-24.078056
 20
81.448496
 30
0.0
 11
-24.230073
 21
81.623935
 31
0.0
  0
LINE
  8
PLAN
  6
CONTINUOUS
 62
     5
  5
209
 10
-24.230073
 20
81.623935
 30
0.0
 11
-24.384473
 21
81.797472
 31
0.0
  0
LINE
  8
PLAN
  6
CONTINUOUS
 62
     5
  5
20A
 10
-24.384473
 20
81.797472
 30
0.0
 11
-24.484485
 21
81.902796
 31
0.0
  0
LINE
  8
PLAN
  6
CONTINUOUS
 62
     5
  5
20B
 10
-24.484485
 20
81.902796
 30
0.0
 11
-24.588856
 21
82.00335
 31
0.0
  0
LINE
  8
PLAN
  6
CONTINUOUS
 62
     5
  5
20C
 10
-24.588856
 20
82.00335
 30
0.0
 11
-24.696529
 21
82.100291
 31
0.0
  0
LINE
  8
PLAN
  6
CONTINUOUS
 62
     5
  5
20D
 10
-24.696529
 20
82.100291
 30
0.0
 11
-24.806448
 21
82.194775
 31
0.0
  0
LINE
  8
PLAN
  6
CONTINUOUS
 62
     5
  5
20E
 10
-24.806448
 20
82.194775
 30
0.0
 11
-24.917555
 21
82.287958
 31
0.0
  0
LINE
  8
PLAN
  6
CONTINUOUS
 62
     5
  5
20F
 10
-24.917555
 20
82.287958
 30
0.0
 11
-25.028794
 21
82.380997
 31
0.0
  0
LINE
  8
PLAN
  6
CONTINUOUS
 62
     5
  5
210
 10
-25.028794
 20
82.380997
 30
0.0
 11
-25.139107
 21
82.475049
 31
0.0
  0
LINE
  8
PLAN
  6
CONTINUOUS
 62
     5
  5
211
 10
-25.139107
 20
82.475049
 30
0.0
 11
-25.247438
 21
82.57127
 31
0.0
  0
LINE
  8
PLAN
  6
CONTINUOUS
 62
     5
  5
212
 10
-25.247438
 20
82.57127
 30
0.0
 11
-25.35273
 21
82.670816
 31
0.0
  0
LINE
  8
PLAN
  6
CONTINUOUS
 62
     5
  5
213
 10
-25.35273
 20
82.670816
 30
0.0
 11
-25.453926
 21
82.774845
 31
0.0
  0
LINE
  8
PLAN
  6
CONTINUOUS
 62
     5
  5
214
 10
-25.453926
 20
82.774845
 30
0.0
 11
-25.553787
 21
82.882947
 31
0.0
  0
LINE
  8
PLAN
  6
CONTINUOUS
 62
     5
  5
215
 10
-25.553787
 20
82.882947
 30
0.0
 11
-25.652976
 21
82.991575
 31
0.0
  0
LINE
  8
PLAN
  6
CONTINUOUS
 62
     5
  5
216
 10
-25.652976
 20
82.991575
 30
0.0
 11
-25.750968
 21
83.101143
 31
0.0
  0
LINE
  8
PLAN
  6
CONTINUOUS
 62
     5
  5
217
 10
-25.750968
 20
83.101143
 30
0.0
 11
-25.847234
 21
83.212064
 31
0.0
  0
LINE
  8
PLAN
  6
CONTINUOUS
 62
     5
  5
218
 10
-25.847234
 20
83.212064
 30
0.0
 11
-25.941248
 21
83.324751
 31
0.0
  0
LINE
  8
PLAN
  6
CONTINUOUS
 62
     5
  5
219
 10
-25.941248
 20
83.324751
 30
0.0
 11
-26.032482
 21
83.439618
 31
0.0
  0
LINE
  8
PLAN
  6
CONTINUOUS
 62
     5
  5
21A
 10
-26.032482
 20
83.439618
 30
0.0
 11
-26.120408
 21
83.557079
 31
0.0
  0
LINE
  8
PLAN
  6
CONTINUOUS
 62
     5
  5
21B
 10
-26.120408
 20
83.557079
 30
0.0
 11
-26.204499
 21
83.677546
 31
0.0
  0
LINE
  8
PLAN
  6
CONTINUOUS
 62
     5
  5
21C
 10
-26.204499
 20
83.677546
 30
0.0
 11
-26.284229
 21
83.801434
 31
0.0
  0
LINE
  8
PLAN
  6
CONTINUOUS
 62
     5
  5
21D
 10
-26.284229
 20
83.801434
 30
0.0
 11
-26.359069
 21
83.929156
 31
0.0
  0
LINE
  8
PLAN
  6
CONTINUOUS
 62
     5
  5
21E
 10
-26.359069
 20
83.929156
 30
0.0
 11
-26.415896
 21
84.040802
 31
0.0
  0
LINE
  8
PLAN
  6
CONTINUOUS
 62
     5
  5
21F
 10
-26.415896
 20
84.040802
 30
0.0
 11
-26.464779
 21
84.155094
 31
0.0
  0
LINE
  8
PLAN
  6
CONTINUOUS
 62
     5
  5
220
 10
-26.464779
 20
84.155094
 30
0.0
 11
-26.50722
 21
84.271529
 31
0.0
  0
LINE
  8
PLAN
  6
CONTINUOUS
 62
     5
  5
221
 10
-26.50722
 20
84.271529
 30
0.0
 11
-26.544727
 21
84.389608
 31
0.0
  0
LINE
  8
PLAN
  6
CONTINUOUS
 62
     5
  5
222
 10
-26.544727
 20
84.389608
 30
0.0
 11
-26.578802
 21
84.508829
 31
0.0
  0
LINE
  8
PLAN
  6
CONTINUOUS
 62
     5
  5
223
 10
-26.578802
 20
84.508829
 30
0.0
 11
-26.610951
 21
84.628691
 31
0.0
  0
LINE
  8
PLAN
  6
CONTINUOUS
 62
     5
  5
224
 10
-26.610951
 20
84.628691
 30
0.0
 11
-26.642679
 21
84.748694
 31
0.0
  0
LINE
  8
PLAN
  6
CONTINUOUS
 62
     5
  5
225
 10
-26.642679
 20
84.748694
 30
0.0
 11
-26.675491
 21
84.868335
 31
0.0
  0
LINE
  8
PLAN
  6
CONTINUOUS
 62
     5
  5
226
 10
-26.675491
 20
84.868335
 30
0.0
 11
-26.710891
 21
84.987115
 31
0.0
  0
LINE
  8
PLAN
  6
CONTINUOUS
 62
     5
  5
227
 10
-26.710891
 20
84.987115
 30
0.0
 11
-26.750384
 21
85.104533
 31
0.0
  0
LINE
  8
PLAN
  6
CONTINUOUS
 62
     5
  5
228
 10
-26.750384
 20
85.104533
 30
0.0
 11
-26.807284
 21
85.255639
 31
0.0
  0
LINE
  8
PLAN
  6
CONTINUOUS
 62
     5
  5
229
 10
-26.807284
 20
85.255639
 30
0.0
 11
-26.867599
 21
85.40544
 31
0.0
  0
LINE
  8
PLAN
  6
CONTINUOUS
 62
     5
  5
22A
 10
-26.867599
 20
85.40544
 30
0.0
 11
-26.930109
 21
85.554402
 31
0.0
  0
LINE
  8
PLAN
  6
CONTINUOUS
 62
     5
  5
22B
 10
-26.930109
 20
85.554402
 30
0.0
 11
-26.993598
 21
85.70299
 31
0.0
  0
LINE
  8
PLAN
  6
CONTINUOUS
 62
     5
  5
22C
 10
-26.993598
 20
85.70299
 30
0.0
 11
-27.056849
 21
85.851669
 31
0.0
  0
LINE
  8
PLAN
  6
CONTINUOUS
 62
     5
  5
22D
 10
-27.056849
 20
85.851669
 30
0.0
 11
-27.118643
 21
86.000904
 31
0.0
  0
LINE
  8
PLAN
  6
CONTINUOUS
 62
     5
  5
22E
 10
-27.118643
 20
86.000904
 30
0.0
 11
-27.177763
 21
86.151162
 31
0.0
  0
LINE
  8
PLAN
  6
CONTINUOUS
 62
     5
  5
22F
 10
-27.177763
 20
86.151162
 30
0.0
 11
-27.232992
 21
86.302907
 31
0.0
  0
LINE
  8
PLAN
  6
CONTINUOUS
 62
     5
  5
230
 10
-27.232992
 20
86.302907
 30
0.0
 11
-27.283112
 21
86.456606
 31
0.0
  0
LINE
  8
PLAN
  6
CONTINUOUS
 62
     5
  5
231
 10
-27.283112
 20
86.456606
 30
0.0
 11
-27.326906
 21
86.612722
 31
0.0
  0
LINE
  8
PLAN
  6
CONTINUOUS
 62
     5
  5
232
 10
-27.326906
 20
86.612722
 30
0.0
 11
-27.364187
 21
86.780059
 31
0.0
  0
LINE
  8
PLAN
  6
CONTINUOUS
 62
     5
  5
233
 10
-27.364187
 20
86.780059
 30
0.0
 11
-27.39245
 21
86.948681
 31
0.0
  0
LINE
  8
PLAN
  6
CONTINUOUS
 62
     5
  5
234
 10
-27.39245
 20
86.948681
 30
0.0
 11
-27.413978
 21
87.118261
 31
0.0
  0
LINE
  8
PLAN
  6
CONTINUOUS
 62
     5
  5
235
 10
-27.413978
 20
87.118261
 30
0.0
 11
-27.431053
 21
87.288475
 31
0.0
  0
LINE
  8
PLAN
  6
CONTINUOUS
 62
     5
  5
236
 10
-27.431053
 20
87.288475
 30
0.0
 11
-27.445958
 21
87.458998
 31
0.0
  0
LINE
  8
PLAN
  6
CONTINUOUS
 62
     5
  5
237
 10
-27.445958
 20
87.458998
 30
0.0
 11
-27.460977
 21
87.629506
 31
0.0
  0
LINE
  8
PLAN
  6
CONTINUOUS
 62
     5
  5
238
 10
-27.460977
 20
87.629506
 30
0.0
 11
-27.478392
 21
87.799671
 31
0.0
  0
LINE
  8
PLAN
  6
CONTINUOUS
 62
     5
  5
239
 10
-27.478392
 20
87.799671
 30
0.0
 11
-27.500486
 21
87.969171
 31
0.0
  0
LINE
  8
PLAN
  6
CONTINUOUS
 62
     5
  5
23A
 10
-27.500486
 20
87.969171
 30
0.0
 11
-27.529542
 21
88.13768
 31
0.0
  0
LINE
  8
PLAN
  6
CONTINUOUS
 62
     5
  5
23B
 10
-27.529542
 20
88.13768
 30
0.0
 11
-27.567842
 21
88.304872
 31
0.0
  0
LINE
  8
PLAN
  6
CONTINUOUS
 62
     5
  5
23C
 10
-27.567842
 20
88.304872
 30
0.0
 11
-27.629894
 21
88.528474
 31
0.0
  0
LINE
  8
PLAN
  6
CONTINUOUS
 62
     5
  5
23D
 10
-27.629894
 20
88.528474
 30
0.0
 11
-27.69755
 21
88.750082
 31
0.0
  0
LINE
  8
PLAN
  6
CONTINUOUS
 62
     5
  5
23E
 10
-27.69755
 20
88.750082
 30
0.0
 11
-27.770002
 21
88.969985
 31
0.0
  0
LINE
  8
PLAN
  6
CONTINUOUS
 62
     5
  5
23F
 10
-27.770002
 20
88.969985
 30
0.0
 11
-27.846441
 21
89.188469
 31
0.0
  0
LINE
  8
PLAN
  6
CONTINUOUS
 62
     5
  5
240
 10
-27.846441
 20
89.188469
 30
0.0
 11
-27.926059
 21
89.405823
 31
0.0
  0
LINE
  8
PLAN
  6
CONTINUOUS
 62
     5
  5
241
 10
-27.926059
 20
89.405823
 30
0.0
 11
-28.008046
 21
89.622334
 31
0.0
  0
LINE
  8
PLAN
  6
CONTINUOUS
 62
     5
  5
242
 10
-28.008046
 20
89.622334
 30
0.0
 11
-28.091593
 21
89.838291
 31
0.0
  0
LINE
  8
PLAN
  6
CONTINUOUS
 62
     5
  5
243
 10
-28.091593
 20
89.838291
 30
0.0
 11
-28.175891
 21
90.05398
 31
0.0
  0
LINE
  8
PLAN
  6
CONTINUOUS
 62
     5
  5
244
 10
-28.175891
 20
90.05398
 30
0.0
 11
-28.260131
 21
90.26969
 31
0.0
  0
LINE
  8
PLAN
  6
CONTINUOUS
 62
     5
  5
245
 10
-28.260131
 20
90.26969
 30
0.0
 11
-28.343505
 21
90.485708
 31
0.0
  0
LINE
  8
PLAN
  6
CONTINUOUS
 62
     5
  5
246
 10
-28.343505
 20
90.485708
 30
0.0
 11
-28.37628
 21
90.571504
 31
0.0
  0
LINE
  8
PLAN
  6
CONTINUOUS
 62
     5
  5
247
 10
-28.37628
 20
90.571504
 30
0.0
 11
-28.409245
 21
90.657214
 31
0.0
  0
LINE
  8
PLAN
  6
CONTINUOUS
 62
     5
  5
248
 10
-28.409245
 20
90.657214
 30
0.0
 11
-28.442743
 21
90.742683
 31
0.0
  0
LINE
  8
PLAN
  6
CONTINUOUS
 62
     5
  5
249
 10
-28.442743
 20
90.742683
 30
0.0
 11
-28.477115
 21
90.827758
 31
0.0
  0
LINE
  8
PLAN
  6
CONTINUOUS
 62
     5
  5
24A
 10
-28.477115
 20
90.827758
 30
0.0
 11
-28.512705
 21
90.912282
 31
0.0
  0
LINE
  8
PLAN
  6
CONTINUOUS
 62
     5
  5
24B
 10
-28.512705
 20
90.912282
 30
0.0
 11
-28.549854
 21
90.996103
 31
0.0
  0
LINE
  8
PLAN
  6
CONTINUOUS
 62
     5
  5
24C
 10
-28.549854
 20
90.996103
 30
0.0
 11
-28.588905
 21
91.079064
 31
0.0
  0
LINE
  8
PLAN
  6
CONTINUOUS
 62
     5
  5
24D
 10
-28.588905
 20
91.079064
 30
0.0
 11
-28.630199
 21
91.161012
 31
0.0
  0
LINE
  8
PLAN
  6
CONTINUOUS
 62
     5
  5
24E
 10
-28.630199
 20
91.161012
 30
0.0
 11
-28.674079
 21
91.241792
 31
0.0
  0
LINE
  8
PLAN
  6
CONTINUOUS
 62
     5
  5
24F
 10
-28.674079
 20
91.241792
 30
0.0
 11
-28.720888
 21
91.32125
 31
0.0
  0
LINE
  8
PLAN
  6
CONTINUOUS
 62
     5
  5
250
 10
-28.720888
 20
91.32125
 30
0.0
 11
-28.759856
 21
91.384725
 31
0.0
  0
LINE
  8
PLAN
  6
CONTINUOUS
 62
     5
  5
251
 10
-28.759856
 20
91.384725
 30
0.0
 11
-28.799185
 21
91.44789
 31
0.0
  0
LINE
  8
PLAN
  6
CONTINUOUS
 62
     5
  5
252
 10
-28.799185
 20
91.44789
 30
0.0
 11
-28.839484
 21
91.510223
 31
0.0
  0
LINE
  8
PLAN
  6
CONTINUOUS
 62
     5
  5
253
 10
-28.839484
 20
91.510223
 30
0.0
 11
-28.881361
 21
91.571202
 31
0.0
  0
LINE
  8
PLAN
  6
CONTINUOUS
 62
     5
  5
254
 10
-28.881361
 20
91.571202
 30
0.0
 11
-28.925425
 21
91.630303
 31
0.0
  0
LINE
  8
PLAN
  6
CONTINUOUS
 62
     5
  5
255
 10
-28.925425
 20
91.630303
 30
0.0
 11
-28.972285
 21
91.687005
 31
0.0
  0
LINE
  8
PLAN
  6
CONTINUOUS
 62
     5
  5
256
 10
-28.972285
 20
91.687005
 30
0.0
 11
-29.022551
 21
91.740784
 31
0.0
  0
LINE
  8
PLAN
  6
CONTINUOUS
 62
     5
  5
257
 10
-29.022551
 20
91.740784
 30
0.0
 11
-29.076831
 21
91.791119
 31
0.0
  0
LINE
  8
PLAN
  6
CONTINUOUS
 62
     5
  5
258
 10
-29.076831
 20
91.791119
 30
0.0
 11
-29.135733
 21
91.837486
 31
0.0
  0
LINE
  8
PLAN
  6
CONTINUOUS
 62
     5
  5
259
 10
-29.135733
 20
91.837486
 30
0.0
 11
-29.199868
 21
91.879363
 31
0.0
  0
LINE
  8
PLAN
  6
CONTINUOUS
 62
     5
  5
25A
 10
-29.199868
 20
91.879363
 30
0.0
 11
-29.279158
 21
91.921899
 31
0.0
  0
LINE
  8
PLAN
  6
CONTINUOUS
 62
     5
  5
25B
 10
-29.279158
 20
91.921899
 30
0.0
 11
-29.360215
 21
91.957729
 31
0.0
  0
LINE
  8
PLAN
  6
CONTINUOUS
 62
     5
  5
25C
 10
-29.360215
 20
91.957729
 30
0.0
 11
-29.44282
 21
91.987681
 31
0.0
  0
LINE
  8
PLAN
  6
CONTINUOUS
 62
     5
  5
25D
 10
-29.44282
 20
91.987681
 30
0.0
 11
-29.526756
 21
92.012581
 31
0.0
  0
LINE
  8
PLAN
  6
CONTINUOUS
 62
     5
  5
25E
 10
-29.526756
 20
92.012581
 30
0.0
 11
-29.611804
 21
92.033257
 31
0.0
  0
LINE
  8
PLAN
  6
CONTINUOUS
 62
     5
  5
25F
 10
-29.611804
 20
92.033257
 30
0.0
 11
-29.697747
 21
92.050537
 31
0.0
  0
LINE
  8
PLAN
  6
CONTINUOUS
 62
     5
  5
260
 10
-29.697747
 20
92.050537
 30
0.0
 11
-29.784366
 21
92.065248
 31
0.0
  0
LINE
  8
PLAN
  6
CONTINUOUS
 62
     5
  5
261
 10
-29.784366
 20
92.065248
 30
0.0
 11
-29.871444
 21
92.078217
 31
0.0
  0
LINE
  8
PLAN
  6
CONTINUOUS
 62
     5
  5
262
 10
-29.871444
 20
92.078217
 30
0.0
 11
-29.958763
 21
92.090271
 31
0.0
  0
LINE
  8
PLAN
  6
CONTINUOUS
 62
     5
  5
263
 10
-29.958763
 20
92.090271
 30
0.0
 11
-30.046104
 21
92.102239
 31
0.0
  0
LINE
  8
PLAN
  6
CONTINUOUS
 62
    11
  5
264
 10
-32.074606
 20
35.951492
 30
0.0
 11
-31.736031
 21
-46.69761
 31
0.0
  0
LINE
  8
PLAN
  6
CONTINUOUS
 62
    11
  5
265
 10
-27.235993
 20
-46.69761
 30
0.0
 11
-27.574569
 21
35.951492
 31
0.0
  0
LINE
  8
PLAN
  6
CONTINUOUS
 62
    11
  5
266
 10
-31.736031
 20
-46.69761
 30
0.0
 11
-27.235993
 21
-46.69761
 31
0.0
  0
LINE
  8
PLAN
  6
CONTINUOUS
 62
    11
  5
267
 10
-32.305606
 20
92.340373
 30
0.0
 11
-32.193735
 21
65.031731
 31
0.0
  0
LINE
  8
PLAN
  6
CONTINUOUS
 62
    11
  5
268
 10
-27.805767
 20
92.388925
 30
0.0
 11
-27.693697
 21
65.031731
 31
0.0
  0
CIRCLE
  8
PLAN
  6
CONTINUOUS
 62
     8
  5
269
 10
-29.902751
 20
50.031731
 30
0.0
 40
2.25
  0
CIRCLE
  8
PLAN
  6
CONTINUOUS
 62
     8
  5
26A
 10
-29.902751
 20
50.031731
 30
0.0
 40
1.25
  0
LINE
  8
PLAN
  6
CONTINUOUS
 62
    11
  5
26B
 10
-30.125263
 20
-60.507648
 30
0.0
 11
-31.178183
 21
-60.474246
 31
0.0
  0
LINE
  8
PLAN
  6
CONTINUOUS
 62
    11
  5
26C
 10
-31.178183
 20
-60.474246
 30
0.0
 11
-32.231134
 21
-60.441792
 31
0.0
  0
LINE
  8
PLAN
  6
CONTINUOUS
 62
    11
  5
26D
 10
-32.231134
 20
-60.441792
 30
0.0
 11
-33.284102
 21
-60.40988
 31
0.0
  0
LINE
  8
PLAN
  6
CONTINUOUS
 62
    11
  5
26E
 10
-33.284102
 20
-60.40988
 30
0.0
 11
-34.337075
 21
-60.378103
 31
0.0
  0
LINE
  8
PLAN
  6
CONTINUOUS
 62
    11
  5
26F
 10
-34.337075
 20
-60.378103
 30
0.0
 11
-35.390039
 21
-60.346055
 31
0.0
  0
LINE
  8
PLAN
  6
CONTINUOUS
 62
    11
  5
270
 10
-35.390039
 20
-60.346055
 30
0.0
 11
-36.442981
 21
-60.31333
 31
0.0
  0
LINE
  8
PLAN
  6
CONTINUOUS
 62
    11
  5
271
 10
-36.442981
 20
-60.31333
 30
0.0
 11
-37.495887
 21
-60.279521
 31
0.0
  0
LINE
  8
PLAN
  6
CONTINUOUS
 62
    11
  5
272
 10
-37.495887
 20
-60.279521
 30
0.0
 11
-38.548746
 21
-60.244222
 31
0.0
  0
LINE
  8
PLAN
  6
CONTINUOUS
 62
    11
  5
273
 10
-38.548746
 20
-60.244222
 30
0.0
 11
-39.601544
 21
-60.207027
 31
0.0
  0
LINE
  8
PLAN
  6
CONTINUOUS
 62
    11
  5
274
 10
-39.601544
 20
-60.207027
 30
0.0
 11
-40.654267
 21
-60.167529
 31
0.0
  0
LINE
  8
PLAN
  6
CONTINUOUS
 62
    11
  5
275
 10
-40.654267
 20
-60.167529
 30
0.0
 11
-41.357414
 21
-60.140233
 31
0.0
  0
LINE
  8
PLAN
  6
CONTINUOUS
 62
    11
  5
276
 10
-41.357414
 20
-60.140233
 30
0.0
 11
-42.060543
 21
-60.112553
 31
0.0
  0
LINE
  8
PLAN
  6
CONTINUOUS
 62
    11
  5
277
 10
-42.060543
 20
-60.112553
 30
0.0
 11
-42.763633
 21
-60.084074
 31
0.0
  0
LINE
  8
PLAN
  6
CONTINUOUS
 62
    11
  5
278
 10
-42.763633
 20
-60.084074
 30
0.0
 11
-43.466664
 21
-60.05438
 31
0.0
  0
LINE
  8
PLAN
  6
CONTINUOUS
 62
    11
  5
279
 10
-43.466664
 20
-60.05438
 30
0.0
 11
-44.169616
 21
-60.023055
 31
0.0
  0
LINE
  8
PLAN
  6
CONTINUOUS
 62
    11
  5
27A
 10
-44.169616
 20
-60.023055
 30
0.0
 11
-44.872469
 21
-59.989682
 31
0.0
  0
LINE
  8
PLAN
  6
CONTINUOUS
 62
    11
  5
27B
 10
-44.872469
 20
-59.989682
 30
0.0
 11
-45.575203
 21
-59.953848
 31
0.0
  0
LINE
  8
PLAN
  6
CONTINUOUS
 62
    11
  5
27C
 10
-45.575203
 20
-59.953848
 30
0.0
 11
-46.277798
 21
-59.915134
 31
0.0
  0
LINE
  8
PLAN
  6
CONTINUOUS
 62
    11
  5
27D
 10
-46.277798
 20
-59.915134
 30
0.0
 11
-46.980233
 21
-59.873127
 31
0.0
  0
LINE
  8
PLAN
  6
CONTINUOUS
 62
    11
  5
27E
 10
-46.980233
 20
-59.873127
 30
0.0
 11
-47.682489
 21
-59.827409
 31
0.0
  0
LINE
  8
PLAN
  6
CONTINUOUS
 62
    11
  5
27F
 10
-47.682489
 20
-59.827409
 30
0.0
 11
-48.232125
 21
-59.78813
 31
0.0
  0
LINE
  8
PLAN
  6
CONTINUOUS
 62
    11
  5
280
 10
-48.232125
 20
-59.78813
 30
0.0
 11
-48.781427
 21
-59.74526
 31
0.0
  0
LINE
  8
PLAN
  6
CONTINUOUS
 62
    11
  5
281
 10
-48.781427
 20
-59.74526
 30
0.0
 11
-49.330429
 21
-59.699166
 31
0.0
  0
LINE
  8
PLAN
  6
CONTINUOUS
 62
    11
  5
282
 10
-49.330429
 20
-59.699166
 30
0.0
 11
-49.879166
 21
-59.650217
 31
0.0
  0
LINE
  8
PLAN
  6
CONTINUOUS
 62
    11
  5
283
 10
-49.879166
 20
-59.650217
 30
0.0
 11
-50.427671
 21
-59.598783
 31
0.0
  0
LINE
  8
PLAN
  6
CONTINUOUS
 62
    11
  5
284
 10
-50.427671
 20
-59.598783
 30
0.0
 11
-50.97598
 21
-59.545231
 31
0.0
  0
LINE
  8
PLAN
  6
CONTINUOUS
 62
    11
  5
285
 10
-50.97598
 20
-59.545231
 30
0.0
 11
-51.524125
 21
-59.489931
 31
0.0
  0
LINE
  8
PLAN
  6
CONTINUOUS
 62
    11
  5
286
 10
-51.524125
 20
-59.489931
 30
0.0
 11
-52.072143
 21
-59.433252
 31
0.0
  0
LINE
  8
PLAN
  6
CONTINUOUS
 62
    11
  5
287
 10
-52.072143
 20
-59.433252
 30
0.0
 11
-52.620067
 21
-59.375562
 31
0.0
  0
LINE
  8
PLAN
  6
CONTINUOUS
 62
    11
  5
288
 10
-52.620067
 20
-59.375562
 30
0.0
 11
-53.167931
 21
-59.317229
 31
0.0
  0
LINE
  8
PLAN
  6
CONTINUOUS
 62
    11
  5
289
 10
-53.167931
 20
-59.317229
 30
0.0
 11
-53.734476
 21
-59.256348
 31
0.0
  0
LINE
  8
PLAN
  6
CONTINUOUS
 62
    11
  5
28A
 10
-53.734476
 20
-59.256348
 30
0.0
 11
-54.300915
 21
-59.194592
 31
0.0
  0
LINE
  8
PLAN
  6
CONTINUOUS
 62
    11
  5
28B
 10
-54.300915
 20
-59.194592
 30
0.0
 11
-54.867218
 21
-59.131694
 31
0.0
  0
LINE
  8
PLAN
  6
CONTINUOUS
 62
    11
  5
28C
 10
-54.867218
 20
-59.131694
 30
0.0
 11
-55.433351
 21
-59.067386
 31
0.0
  0
LINE
  8
PLAN
  6
CONTINUOUS
 62
    11
  5
28D
 10
-55.433351
 20
-59.067386
 30
0.0
 11
-55.999283
 21
-59.001403
 31
0.0
  0
LINE
  8
PLAN
  6
CONTINUOUS
 62
    11
  5
28E
 10
-55.999283
 20
-59.001403
 30
0.0
 11
-56.56498
 21
-58.933476
 31
0.0
  0
LINE
  8
PLAN
  6
CONTINUOUS
 62
    11
  5
28F
 10
-56.56498
 20
-58.933476
 30
0.0
 11
-57.130412
 21
-58.863338
 31
0.0
  0
LINE
  8
PLAN
  6
CONTINUOUS
 62
    11
  5
290
 10
-57.130412
 20
-58.863338
 30
0.0
 11
-57.695546
 21
-58.790723
 31
0.0
  0
LINE
  8
PLAN
  6
CONTINUOUS
 62
    11
  5
291
 10
-57.695546
 20
-58.790723
 30
0.0
 11
-58.26035
 21
-58.715362
 31
0.0
  0
LINE
  8
PLAN
  6
CONTINUOUS
 62
    11
  5
292
 10
-58.26035
 20
-58.715362
 30
0.0
 11
-58.824792
 21
-58.63699
 31
0.0
  0
LINE
  8
PLAN
  6
CONTINUOUS
 62
    11
  5
293
 10
-58.824792
 20
-58.63699
 30
0.0
 11
-59.101011
 21
-58.59644
 31
0.0
  0
LINE
  8
PLAN
  6
CONTINUOUS
 62
    11
  5
294
 10
-59.101011
 20
-58.59644
 30
0.0
 11
-59.376737
 21
-58.553238
 31
0.0
  0
LINE
  8
PLAN
  6
CONTINUOUS
 62
    11
  5
295
 10
-59.376737
 20
-58.553238
 30
0.0
 11
-59.651993
 21
-58.507506
 31
0.0
  0
LINE
  8
PLAN
  6
CONTINUOUS
 62
    11
  5
296
 10
-59.651993
 20
-58.507506
 30
0.0
 11
-59.9268
 21
-58.459365
 31
0.0
  0
LINE
  8
PLAN
  6
CONTINUOUS
 62
    11
  5
297
 10
-59.9268
 20
-58.459365
 30
0.0
 11
-60.201182
 21
-58.40894
 31
0.0
  0
LINE
  8
PLAN
  6
CONTINUOUS
 62
    11
  5
298
 10
-60.201182
 20
-58.40894
 30
0.0
 11
-60.475162
 21
-58.356351
 31
0.0
  0
LINE
  8
PLAN
  6
CONTINUOUS
 62
    11
  5
299
 10
-60.475162
 20
-58.356351
 30
0.0
 11
-60.748762
 21
-58.301721
 31
0.0
  0
LINE
  8
PLAN
  6
CONTINUOUS
 62
    11
  5
29A
 10
-60.748762
 20
-58.301721
 30
0.0
 11
-61.022006
 21
-58.245173
 31
0.0
  0
LINE
  8
PLAN
  6
CONTINUOUS
 62
    11
  5
29B
 10
-61.022006
 20
-58.245173
 30
0.0
 11
-61.294915
 21
-58.186829
 31
0.0
  0
LINE
  8
PLAN
  6
CONTINUOUS
 62
    11
  5
29C
 10
-61.294915
 20
-58.186829
 30
0.0
 11
-61.567513
 21
-58.12681
 31
0.0
  0
LINE
  8
PLAN
  6
CONTINUOUS
 62
    11
  5
29D
 10
-61.567513
 20
-58.12681
 30
0.0
 11
-61.981272
 21
-58.034253
 31
0.0
  0
LINE
  8
PLAN
  6
CONTINUOUS
 62
    11
  5
29E
 10
-61.981272
 20
-58.034253
 30
0.0
 11
-62.394852
 21
-57.940972
 31
0.0
  0
LINE
  8
PLAN
  6
CONTINUOUS
 62
    11
  5
29F
 10
-62.394852
 20
-57.940972
 30
0.0
 11
-62.808123
 21
-57.846449
 31
0.0
  0
LINE
  8
PLAN
  6
CONTINUOUS
 62
    11
  5
2A0
 10
-62.808123
 20
-57.846449
 30
0.0
 11
-63.220957
 21
-57.750164
 31
0.0
  0
LINE
  8
PLAN
  6
CONTINUOUS
 62
    11
  5
2A1
 10
-63.220957
 20
-57.750164
 30
0.0
 11
-63.633227
 21
-57.6516
 31
0.0
  0
LINE
  8
PLAN
  6
CONTINUOUS
 62
    11
  5
2A2
 10
-63.633227
 20
-57.6516
 30
0.0
 11
-64.044802
 21
-57.550239
 31
0.0
  0
LINE
  8
PLAN
  6
CONTINUOUS
 62
    11
  5
2A3
 10
-64.044802
 20
-57.550239
 30
0.0
 11
-64.455555
 21
-57.445562
 31
0.0
  0
LINE
  8
PLAN
  6
CONTINUOUS
 62
    11
  5
2A4
 10
-64.455555
 20
-57.445562
 30
0.0
 11
-64.865357
 21
-57.33705
 31
0.0
  0
LINE
  8
PLAN
  6
CONTINUOUS
 62
    11
  5
2A5
 10
-64.865357
 20
-57.33705
 30
0.0
 11
-65.27408
 21
-57.224186
 31
0.0
  0
LINE
  8
PLAN
  6
CONTINUOUS
 62
    11
  5
2A6
 10
-65.27408
 20
-57.224186
 30
0.0
 11
-65.681594
 21
-57.106451
 31
0.0
  0
LINE
  8
PLAN
  6
CONTINUOUS
 62
    11
  5
2A7
 10
-65.681594
 20
-57.106451
 30
0.0
 11
-65.885551
 21
-57.043197
 31
0.0
  0
LINE
  8
PLAN
  6
CONTINUOUS
 62
    11
  5
2A8
 10
-65.885551
 20
-57.043197
 30
0.0
 11
-66.087589
 21
-56.975083
 31
0.0
  0
LINE
  8
PLAN
  6
CONTINUOUS
 62
    11
  5
2A9
 10
-66.087589
 20
-56.975083
 30
0.0
 11
-66.287934
 21
-56.902684
 31
0.0
  0
LINE
  8
PLAN
  6
CONTINUOUS
 62
    11
  5
2AA
 10
-66.287934
 20
-56.902684
 30
0.0
 11
-66.486813
 21
-56.826574
 31
0.0
  0
LINE
  8
PLAN
  6
CONTINUOUS
 62
    11
  5
2AB
 10
-66.486813
 20
-56.826574
 30
0.0
 11
-66.684454
 21
-56.747329
 31
0.0
  0
LINE
  8
PLAN
  6
CONTINUOUS
 62
    11
  5
2AC
 10
-66.684454
 20
-56.747329
 30
0.0
 11
-66.881083
 21
-56.665522
 31
0.0
  0
LINE
  8
PLAN
  6
CONTINUOUS
 62
    11
  5
2AD
 10
-66.881083
 20
-56.665522
 30
0.0
 11
-67.076927
 21
-56.581729
 31
0.0
  0
LINE
  8
PLAN
  6
CONTINUOUS
 62
    11
  5
2AE
 10
-67.076927
 20
-56.581729
 30
0.0
 11
-67.272214
 21
-56.496524
 31
0.0
  0
LINE
  8
PLAN
  6
CONTINUOUS
 62
    11
  5
2AF
 10
-67.272214
 20
-56.496524
 30
0.0
 11
-67.467169
 21
-56.410481
 31
0.0
  0
LINE
  8
PLAN
  6
CONTINUOUS
 62
    11
  5
2B0
 10
-67.467169
 20
-56.410481
 30
0.0
 11
-67.662021
 21
-56.324175
 31
0.0
  0
LINE
  8
PLAN
  6
CONTINUOUS
 62
    11
  5
2B1
 10
-67.662021
 20
-56.324175
 30
0.0
 11
-67.684935
 21
-56.312987
 31
0.0
  0
LINE
  8
PLAN
  6
CONTINUOUS
 62
    11
  5
2B2
 10
-67.684935
 20
-56.312987
 30
0.0
 11
-67.706436
 21
-56.300375
 31
0.0
  0
LINE
  8
PLAN
  6
CONTINUOUS
 62
    11
  5
2B3
 10
-67.706436
 20
-56.300375
 30
0.0
 11
-67.726574
 21
-56.286389
 31
0.0
  0
LINE
  8
PLAN
  6
CONTINUOUS
 62
    11
  5
2B4
 10
-67.726574
 20
-56.286389
 30
0.0
 11
-67.745396
 21
-56.271077
 31
0.0
  0
LINE
  8
PLAN
  6
CONTINUOUS
 62
    11
  5
2B5
 10
-67.745396
 20
-56.271077
 30
0.0
 11
-67.762953
 21
-56.254489
 31
0.0
  0
LINE
  8
PLAN
  6
CONTINUOUS
 62
    11
  5
2B6
 10
-67.762953
 20
-56.254489
 30
0.0
 11
-67.779292
 21
-56.236673
 31
0.0
  0
LINE
  8
PLAN
  6
CONTINUOUS
 62
    11
  5
2B7
 10
-67.779292
 20
-56.236673
 30
0.0
 11
-67.794461
 21
-56.217679
 31
0.0
  0
LINE
  8
PLAN
  6
CONTINUOUS
 62
    11
  5
2B8
 10
-67.794461
 20
-56.217679
 30
0.0
 11
-67.80851
 21
-56.197555
 31
0.0
  0
LINE
  8
PLAN
  6
CONTINUOUS
 62
    11
  5
2B9
 10
-67.80851
 20
-56.197555
 30
0.0
 11
-67.821487
 21
-56.176351
 31
0.0
  0
LINE
  8
PLAN
  6
CONTINUOUS
 62
    11
  5
2BA
 10
-67.821487
 20
-56.176351
 30
0.0
 11
-67.833441
 21
-56.154116
 31
0.0
  0
LINE
  8
PLAN
  6
CONTINUOUS
 62
    11
  5
2BB
 10
-67.833441
 20
-56.154116
 30
0.0
 11
-67.875858
 21
-56.072365
 31
0.0
  0
LINE
  8
PLAN
  6
CONTINUOUS
 62
    11
  5
2BC
 10
-67.875858
 20
-56.072365
 30
0.0
 11
-67.919528
 21
-55.991119
 31
0.0
  0
LINE
  8
PLAN
  6
CONTINUOUS
 62
    11
  5
2BD
 10
-67.919528
 20
-55.991119
 30
0.0
 11
-67.963304
 21
-55.909916
 31
0.0
  0
LINE
  8
PLAN
  6
CONTINUOUS
 62
    11
  5
2BE
 10
-67.963304
 20
-55.909916
 30
0.0
 11
-68.006037
 21
-55.828293
 31
0.0
  0
LINE
  8
PLAN
  6
CONTINUOUS
 62
    11
  5
2BF
 10
-68.006037
 20
-55.828293
 30
0.0
 11
-68.046581
 21
-55.745787
 31
0.0
  0
LINE
  8
PLAN
  6
CONTINUOUS
 62
    11
  5
2C0
 10
-68.046581
 20
-55.745787
 30
0.0
 11
-68.083787
 21
-55.661935
 31
0.0
  0
LINE
  8
PLAN
  6
CONTINUOUS
 62
    11
  5
2C1
 10
-68.083787
 20
-55.661935
 30
0.0
 11
-68.116508
 21
-55.576275
 31
0.0
  0
LINE
  8
PLAN
  6
CONTINUOUS
 62
    11
  5
2C2
 10
-68.116508
 20
-55.576275
 30
0.0
 11
-68.143596
 21
-55.488344
 31
0.0
  0
LINE
  8
PLAN
  6
CONTINUOUS
 62
    11
  5
2C3
 10
-68.143596
 20
-55.488344
 30
0.0
 11
-68.163903
 21
-55.397678
 31
0.0
  0
LINE
  8
PLAN
  6
CONTINUOUS
 62
    11
  5
2C4
 10
-68.163903
 20
-55.397678
 30
0.0
 11
-68.176281
 21
-55.303816
 31
0.0
  0
LINE
  8
PLAN
  6
CONTINUOUS
 62
    11
  5
2C5
 10
-68.176281
 20
-55.303816
 30
0.0
 11
-68.183097
 21
-55.181324
 31
0.0
  0
LINE
  8
PLAN
  6
CONTINUOUS
 62
    11
  5
2C6
 10
-68.183097
 20
-55.181324
 30
0.0
 11
-68.183223
 21
-55.059796
 31
0.0
  0
LINE
  8
PLAN
  6
CONTINUOUS
 62
    11
  5
2C7
 10
-68.183223
 20
-55.059796
 30
0.0
 11
-68.17717
 21
-54.939157
 31
0.0
  0
LINE
  8
PLAN
  6
CONTINUOUS
 62
    11
  5
2C8
 10
-68.17717
 20
-54.939157
 30
0.0
 11
-68.165452
 21
-54.819334
 31
0.0
  0
LINE
  8
PLAN
  6
CONTINUOUS
 62
    11
  5
2C9
 10
-68.165452
 20
-54.819334
 30
0.0
 11
-68.148581
 21
-54.700253
 31
0.0
  0
LINE
  8
PLAN
  6
CONTINUOUS
 62
    11
  5
2CA
 10
-68.148581
 20
-54.700253
 30
0.0
 11
-68.127069
 21
-54.581841
 31
0.0
  0
LINE
  8
PLAN
  6
CONTINUOUS
 62
    11
  5
2CB
 10
-68.127069
 20
-54.581841
 30
0.0
 11
-68.101428
 21
-54.464022
 31
0.0
  0
LINE
  8
PLAN
  6
CONTINUOUS
 62
    11
  5
2CC
 10
-68.101428
 20
-54.464022
 30
0.0
 11
-68.072172
 21
-54.346725
 31
0.0
  0
LINE
  8
PLAN
  6
CONTINUOUS
 62
    11
  5
2CD
 10
-68.072172
 20
-54.346725
 30
0.0
 11
-68.039812
 21
-54.229874
 31
0.0
  0
LINE
  8
PLAN
  6
CONTINUOUS
 62
    11
  5
2CE
 10
-68.039812
 20
-54.229874
 30
0.0
 11
-68.004861
 21
-54.113397
 31
0.0
  0
LINE
  8
PLAN
  6
CONTINUOUS
 62
    11
  5
2CF
 10
-68.004861
 20
-54.113397
 30
0.0
 11
-67.967533
 21
-54.004256
 31
0.0
  0
LINE
  8
PLAN
  6
CONTINUOUS
 62
    11
  5
2D0
 10
-67.967533
 20
-54.004256
 30
0.0
 11
-67.924767
 21
-53.897855
 31
0.0
  0
LINE
  8
PLAN
  6
CONTINUOUS
 62
    11
  5
2D1
 10
-67.924767
 20
-53.897855
 30
0.0
 11
-67.877428
 21
-53.79376
 31
0.0
  0
LINE
  8
PLAN
  6
CONTINUOUS
 62
    11
  5
2D2
 10
-67.877428
 20
-53.79376
 30
0.0
 11
-67.826379
 21
-53.691534
 31
0.0
  0
LINE
  8
PLAN
  6
CONTINUOUS
 62
    11
  5
2D3
 10
-67.826379
 20
-53.691534
 30
0.0
 11
-67.772485
 21
-53.590742
 31
0.0
  0
LINE
  8
PLAN
  6
CONTINUOUS
 62
    11
  5
2D4
 10
-67.772485
 20
-53.590742
 30
0.0
 11
-67.716611
 21
-53.490947
 31
0.0
  0
LINE
  8
PLAN
  6
CONTINUOUS
 62
    11
  5
2D5
 10
-67.716611
 20
-53.490947
 30
0.0
 11
-67.659621
 21
-53.391716
 31
0.0
  0
LINE
  8
PLAN
  6
CONTINUOUS
 62
    11
  5
2D6
 10
-67.659621
 20
-53.391716
 30
0.0
 11
-67.60238
 21
-53.292611
 31
0.0
  0
LINE
  8
PLAN
  6
CONTINUOUS
 62
    11
  5
2D7
 10
-67.60238
 20
-53.292611
 30
0.0
 11
-67.545752
 21
-53.193196
 31
0.0
  0
LINE
  8
PLAN
  6
CONTINUOUS
 62
    11
  5
2D8
 10
-67.545752
 20
-53.193196
 30
0.0
 11
-67.490601
 21
-53.093038
 31
0.0
  0
LINE
  8
PLAN
  6
CONTINUOUS
 62
    11
  5
2D9
 10
-67.490601
 20
-53.093038
 30
0.0
 11
-67.407767
 21
-52.938373
 31
0.0
  0
LINE
  8
PLAN
  6
CONTINUOUS
 62
    11
  5
2DA
 10
-67.407767
 20
-52.938373
 30
0.0
 11
-67.32519
 21
-52.783565
 31
0.0
  0
LINE
  8
PLAN
  6
CONTINUOUS
 62
    11
  5
2DB
 10
-67.32519
 20
-52.783565
 30
0.0
 11
-67.242535
 21
-52.6288
 31
0.0
  0
LINE
  8
PLAN
  6
CONTINUOUS
 62
    11
  5
2DC
 10
-67.242535
 20
-52.6288
 30
0.0
 11
-67.159465
 21
-52.474268
 31
0.0
  0
LINE
  8
PLAN
  6
CONTINUOUS
 62
    11
  5
2DD
 10
-67.159465
 20
-52.474268
 30
0.0
 11
-67.075643
 21
-52.320157
 31
0.0
  0
LINE
  8
PLAN
  6
CONTINUOUS
 62
    11
  5
2DE
 10
-67.075643
 20
-52.320157
 30
0.0
 11
-66.990734
 21
-52.166654
 31
0.0
  0
LINE
  8
PLAN
  6
CONTINUOUS
 62
    11
  5
2DF
 10
-66.990734
 20
-52.166654
 30
0.0
 11
-66.904402
 21
-52.013949
 31
0.0
  0
LINE
  8
PLAN
  6
CONTINUOUS
 62
    11
  5
2E0
 10
-66.904402
 20
-52.013949
 30
0.0
 11
-66.81631
 21
-51.862229
 31
0.0
  0
LINE
  8
PLAN
  6
CONTINUOUS
 62
    11
  5
2E1
 10
-66.81631
 20
-51.862229
 30
0.0
 11
-66.726121
 21
-51.711683
 31
0.0
  0
LINE
  8
PLAN
  6
CONTINUOUS
 62
    11
  5
2E2
 10
-66.726121
 20
-51.711683
 30
0.0
 11
-66.633501
 21
-51.562499
 31
0.0
  0
LINE
  8
PLAN
  6
CONTINUOUS
 62
    11
  5
2E3
 10
-66.633501
 20
-51.562499
 30
0.0
 11
-66.527743
 21
-51.398023
 31
0.0
  0
LINE
  8
PLAN
  6
CONTINUOUS
 62
    11
  5
2E4
 10
-66.527743
 20
-51.398023
 30
0.0
 11
-66.419853
 21
-51.235044
 31
0.0
  0
LINE
  8
PLAN
  6
CONTINUOUS
 62
    11
  5
2E5
 10
-66.419853
 20
-51.235044
 30
0.0
 11
-66.310085
 21
-51.073386
 31
0.0
  0
LINE
  8
PLAN
  6
CONTINUOUS
 62
    11
  5
2E6
 10
-66.310085
 20
-51.073386
 30
0.0
 11
-66.198687
 21
-50.912872
 31
0.0
  0
LINE
  8
PLAN
  6
CONTINUOUS
 62
    11
  5
2E7
 10
-66.198687
 20
-50.912872
 30
0.0
 11
-66.085912
 21
-50.753327
 31
0.0
  0
LINE
  8
PLAN
  6
CONTINUOUS
 62
    11
  5
2E8
 10
-66.085912
 20
-50.753327
 30
0.0
 11
-65.972012
 21
-50.594572
 31
0.0
  0
LINE
  8
PLAN
  6
CONTINUOUS
 62
    11
  5
2E9
 10
-65.972012
 20
-50.594572
 30
0.0
 11
-65.857236
 21
-50.436432
 31
0.0
  0
LINE
  8
PLAN
  6
CONTINUOUS
 62
    11
  5
2EA
 10
-65.857236
 20
-50.436432
 30
0.0
 11
-65.741838
 21
-50.278731
 31
0.0
  0
LINE
  8
PLAN
  6
CONTINUOUS
 62
    11
  5
2EB
 10
-65.741838
 20
-50.278731
 30
0.0
 11
-65.626066
 21
-50.121291
 31
0.0
  0
LINE
  8
PLAN
  6
CONTINUOUS
 62
    11
  5
2EC
 10
-65.626066
 20
-50.121291
 30
0.0
 11
-65.510174
 21
-49.963936
 31
0.0
  0
LINE
  8
PLAN
  6
CONTINUOUS
 62
    11
  5
2ED
 10
-65.510174
 20
-49.963936
 30
0.0
 11
-65.309216
 21
-49.688252
 31
0.0
  0
LINE
  8
PLAN
  6
CONTINUOUS
 62
    11
  5
2EE
 10
-65.309216
 20
-49.688252
 30
0.0
 11
-65.110124
 21
-49.411157
 31
0.0
  0
LINE
  8
PLAN
  6
CONTINUOUS
 62
    11
  5
2EF
 10
-65.110124
 20
-49.411157
 30
0.0
 11
-64.911804
 21
-49.13348
 31
0.0
  0
LINE
  8
PLAN
  6
CONTINUOUS
 62
    11
  5
2F0
 10
-64.911804
 20
-49.13348
 30
0.0
 11
-64.713159
 21
-48.856047
 31
0.0
  0
LINE
  8
PLAN
  6
CONTINUOUS
 62
    11
  5
2F1
 10
-64.713159
 20
-48.856047
 30
0.0
 11
-64.513095
 21
-48.579687
 31
0.0
  0
LINE
  8
PLAN
  6
CONTINUOUS
 62
    11
  5
2F2
 10
-64.513095
 20
-48.579687
 30
0.0
 11
-64.310515
 21
-48.305229
 31
0.0
  0
LINE
  8
PLAN
  6
CONTINUOUS
 62
    11
  5
2F3
 10
-64.310515
 20
-48.305229
 30
0.0
 11
-64.104325
 21
-48.033501
 31
0.0
  0
LINE
  8
PLAN
  6
CONTINUOUS
 62
    11
  5
2F4
 10
-64.104325
 20
-48.033501
 30
0.0
 11
-63.893428
 21
-47.765331
 31
0.0
  0
LINE
  8
PLAN
  6
CONTINUOUS
 62
    11
  5
2F5
 10
-63.893428
 20
-47.765331
 30
0.0
 11
-63.67673
 21
-47.501547
 31
0.0
  0
LINE
  8
PLAN
  6
CONTINUOUS
 62
    11
  5
2F6
 10
-63.67673
 20
-47.501547
 30
0.0
 11
-63.453134
 21
-47.242978
 31
0.0
  0
LINE
  8
PLAN
  6
CONTINUOUS
 62
    11
  5
2F7
 10
-63.453134
 20
-47.242978
 30
0.0
 11
-63.161858
 21
-46.919451
 31
0.0
  0
LINE
  8
PLAN
  6
CONTINUOUS
 62
    11
  5
2F8
 10
-63.161858
 20
-46.919451
 30
0.0
 11
-62.866838
 21
-46.5997
 31
0.0
  0
LINE
  8
PLAN
  6
CONTINUOUS
 62
    11
  5
2F9
 10
-62.866838
 20
-46.5997
 30
0.0
 11
-62.568037
 21
-46.283758
 31
0.0
  0
LINE
  8
PLAN
  6
CONTINUOUS
 62
    11
  5
2FA
 10
-62.568037
 20
-46.283758
 30
0.0
 11
-62.26542
 21
-45.971664
 31
0.0
  0
LINE
  8
PLAN
  6
CONTINUOUS
 62
    11
  5
2FB
 10
-62.26542
 20
-45.971664
 30
0.0
 11
-61.958952
 21
-45.663452
 31
0.0
  0
LINE
  8
PLAN
  6
CONTINUOUS
 62
    11
  5
2FC
 10
-61.958952
 20
-45.663452
 30
0.0
 11
-61.648595
 21
-45.359159
 31
0.0
  0
LINE
  8
PLAN
  6
CONTINUOUS
 62
    11
  5
2FD
 10
-61.648595
 20
-45.359159
 30
0.0
 11
-61.334315
 21
-45.058821
 31
0.0
  0
LINE
  8
PLAN
  6
CONTINUOUS
 62
    11
  5
2FE
 10
-61.334315
 20
-45.058821
 30
0.0
 11
-61.016075
 21
-44.762475
 31
0.0
  0
LINE
  8
PLAN
  6
CONTINUOUS
 62
    11
  5
2FF
 10
-61.016075
 20
-44.762475
 30
0.0
 11
-60.693839
 21
-44.470156
 31
0.0
  0
LINE
  8
PLAN
  6
CONTINUOUS
 62
    11
  5
300
 10
-60.693839
 20
-44.470156
 30
0.0
 11
-60.367573
 21
-44.1819
 31
0.0
  0
LINE
  8
PLAN
  6
CONTINUOUS
 62
    11
  5
301
 10
-60.367573
 20
-44.1819
 30
0.0
 11
-60.124354
 21
-43.975713
 31
0.0
  0
LINE
  8
PLAN
  6
CONTINUOUS
 62
    11
  5
302
 10
-60.124354
 20
-43.975713
 30
0.0
 11
-59.876346
 21
-43.776107
 31
0.0
  0
LINE
  8
PLAN
  6
CONTINUOUS
 62
    11
  5
303
 10
-59.876346
 20
-43.776107
 30
0.0
 11
-59.624187
 21
-43.582208
 31
0.0
  0
LINE
  8
PLAN
  6
CONTINUOUS
 62
    11
  5
304
 10
-59.624187
 20
-43.582208
 30
0.0
 11
-59.368512
 21
-43.393142
 31
0.0
  0
LINE
  8
PLAN
  6
CONTINUOUS
 62
    11
  5
305
 10
-59.368512
 20
-43.393142
 30
0.0
 11
-59.109958
 21
-43.208034
 31
0.0
  0
LINE
  8
PLAN
  6
CONTINUOUS
 62
    11
  5
306
 10
-59.109958
 20
-43.208034
 30
0.0
 11
-58.849161
 21
-43.026008
 31
0.0
  0
LINE
  8
PLAN
  6
CONTINUOUS
 62
    11
  5
307
 10
-58.849161
 20
-43.026008
 30
0.0
 11
-58.586758
 21
-42.846191
 31
0.0
  0
LINE
  8
PLAN
  6
CONTINUOUS
 62
    11
  5
308
 10
-58.586758
 20
-42.846191
 30
0.0
 11
-58.323384
 21
-42.667707
 31
0.0
  0
LINE
  8
PLAN
  6
CONTINUOUS
 62
    11
  5
309
 10
-58.323384
 20
-42.667707
 30
0.0
 11
-58.059677
 21
-42.489682
 31
0.0
  0
LINE
  8
PLAN
  6
CONTINUOUS
 62
    11
  5
30A
 10
-58.059677
 20
-42.489682
 30
0.0
 11
-57.796272
 21
-42.311241
 31
0.0
  0
LINE
  8
PLAN
  6
CONTINUOUS
 62
    11
  5
30B
 10
-57.796272
 20
-42.311241
 30
0.0
 11
-57.458625
 21
-42.08211
 31
0.0
  0
LINE
  8
PLAN
  6
CONTINUOUS
 62
    11
  5
30C
 10
-57.458625
 20
-42.08211
 30
0.0
 11
-57.120344
 21
-41.853962
 31
0.0
  0
LINE
  8
PLAN
  6
CONTINUOUS
 62
    11
  5
30D
 10
-57.120344
 20
-41.853962
 30
0.0
 11
-56.781235
 21
-41.627098
 31
0.0
  0
LINE
  8
PLAN
  6
CONTINUOUS
 62
    11
  5
30E
 10
-56.781235
 20
-41.627098
 30
0.0
 11
-56.441102
 21
-41.401822
 31
0.0
  0
LINE
  8
PLAN
  6
CONTINUOUS
 62
    11
  5
30F
 10
-56.441102
 20
-41.401822
 30
0.0
 11
-56.09975
 21
-41.178437
 31
0.0
  0
LINE
  8
PLAN
  6
CONTINUOUS
 62
    11
  5
310
 10
-56.09975
 20
-41.178437
 30
0.0
 11
-55.756984
 21
-40.957244
 31
0.0
  0
LINE
  8
PLAN
  6
CONTINUOUS
 62
    11
  5
311
 10
-55.756984
 20
-40.957244
 30
0.0
 11
-55.412608
 21
-40.738548
 31
0.0
  0
LINE
  8
PLAN
  6
CONTINUOUS
 62
    11
  5
312
 10
-55.412608
 20
-40.738548
 30
0.0
 11
-55.066427
 21
-40.522651
 31
0.0
  0
LINE
  8
PLAN
  6
CONTINUOUS
 62
    11
  5
313
 10
-55.066427
 20
-40.522651
 30
0.0
 11
-54.718247
 21
-40.309855
 31
0.0
  0
LINE
  8
PLAN
  6
CONTINUOUS
 62
    11
  5
314
 10
-54.718247
 20
-40.309855
 30
0.0
 11
-54.367871
 21
-40.100463
 31
0.0
  0
LINE
  8
PLAN
  6
CONTINUOUS
 62
    11
  5
315
 10
-54.367871
 20
-40.100463
 30
0.0
 11
-53.998041
 21
-39.882912
 31
0.0
  0
LINE
  8
PLAN
  6
CONTINUOUS
 62
    11
  5
316
 10
-53.998041
 20
-39.882912
 30
0.0
 11
-53.627336
 21
-39.666978
 31
0.0
  0
LINE
  8
PLAN
  6
CONTINUOUS
 62
    11
  5
317
 10
-53.627336
 20
-39.666978
 30
0.0
 11
-53.255476
 21
-39.453177
 31
0.0
  0
LINE
  8
PLAN
  6
CONTINUOUS
 62
    11
  5
318
 10
-53.255476
 20
-39.453177
 30
0.0
 11
-52.882182
 21
-39.242028
 31
0.0
  0
LINE
  8
PLAN
  6
CONTINUOUS
 62
    11
  5
319
 10
-52.882182
 20
-39.242028
 30
0.0
 11
-52.507173
 21
-39.034046
 31
0.0
  0
LINE
  8
PLAN
  6
CONTINUOUS
 62
    11
  5
31A
 10
-52.507173
 20
-39.034046
 30
0.0
 11
-52.130171
 21
-38.829748
 31
0.0
  0
LINE
  8
PLAN
  6
CONTINUOUS
 62
    11
  5
31B
 10
-52.130171
 20
-38.829748
 30
0.0
 11
-51.750896
 21
-38.629652
 31
0.0
  0
LINE
  8
PLAN
  6
CONTINUOUS
 62
    11
  5
31C
 10
-51.750896
 20
-38.629652
 30
0.0
 11
-51.369067
 21
-38.434275
 31
0.0
  0
LINE
  8
PLAN
  6
CONTINUOUS
 62
    11
  5
31D
 10
-51.369067
 20
-38.434275
 30
0.0
 11
-50.984405
 21
-38.244134
 31
0.0
  0
LINE
  8
PLAN
  6
CONTINUOUS
 62
    11
  5
31E
 10
-50.984405
 20
-38.244134
 30
0.0
 11
-50.59663
 21
-38.059744
 31
0.0
  0
LINE
  8
PLAN
  6
CONTINUOUS
 62
    11
  5
31F
 10
-50.59663
 20
-38.059744
 30
0.0
 11
-50.142643
 21
-37.850789
 31
0.0
  0
LINE
  8
PLAN
  6
CONTINUOUS
 62
    11
  5
320
 10
-50.142643
 20
-37.850789
 30
0.0
 11
-49.68693
 21
-37.646104
 31
0.0
  0
LINE
  8
PLAN
  6
CONTINUOUS
 62
    11
  5
321
 10
-49.68693
 20
-37.646104
 30
0.0
 11
-49.2294
 21
-37.445914
 31
0.0
  0
LINE
  8
PLAN
  6
CONTINUOUS
 62
    11
  5
322
 10
-49.2294
 20
-37.445914
 30
0.0
 11
-48.769965
 21
-37.250439
 31
0.0
  0
LINE
  8
PLAN
  6
CONTINUOUS
 62
    11
  5
323
 10
-48.769965
 20
-37.250439
 30
0.0
 11
-48.308533
 21
-37.059903
 31
0.0
  0
LINE
  8
PLAN
  6
CONTINUOUS
 62
    11
  5
324
 10
-48.308533
 20
-37.059903
 30
0.0
 11
-47.845016
 21
-36.874528
 31
0.0
  0
LINE
  8
PLAN
  6
CONTINUOUS
 62
    11
  5
325
 10
-47.845016
 20
-36.874528
 30
0.0
 11
-47.379322
 21
-36.694536
 31
0.0
  0
LINE
  8
PLAN
  6
CONTINUOUS
 62
    11
  5
326
 10
-47.379322
 20
-36.694536
 30
0.0
 11
-46.911363
 21
-36.52015
 31
0.0
  0
LINE
  8
PLAN
  6
CONTINUOUS
 62
    11
  5
327
 10
-46.911363
 20
-36.52015
 30
0.0
 11
-46.441049
 21
-36.351592
 31
0.0
  0
LINE
  8
PLAN
  6
CONTINUOUS
 62
    11
  5
328
 10
-46.441049
 20
-36.351592
 30
0.0
 11
-45.968288
 21
-36.189086
 31
0.0
  0
LINE
  8
PLAN
  6
CONTINUOUS
 62
    11
  5
329
 10
-45.968288
 20
-36.189086
 30
0.0
 11
-45.426421
 21
-36.012101
 31
0.0
  0
LINE
  8
PLAN
  6
CONTINUOUS
 62
    11
  5
32A
 10
-45.426421
 20
-36.012101
 30
0.0
 11
-44.882118
 21
-35.843848
 31
0.0
  0
LINE
  8
PLAN
  6
CONTINUOUS
 62
    11
  5
32B
 10
-44.882118
 20
-35.843848
 30
0.0
 11
-44.335736
 21
-35.683045
 31
0.0
  0
LINE
  8
PLAN
  6
CONTINUOUS
 62
    11
  5
32C
 10
-44.335736
 20
-35.683045
 30
0.0
 11
-43.787632
 21
-35.528414
 31
0.0
  0
LINE
  8
PLAN
  6
CONTINUOUS
 62
    11
  5
32D
 10
-43.787632
 20
-35.528414
 30
0.0
 11
-43.238163
 21
-35.378674
 31
0.0
  0
LINE
  8
PLAN
  6
CONTINUOUS
 62
    11
  5
32E
 10
-43.238163
 20
-35.378674
 30
0.0
 11
-42.687686
 21
-35.232546
 31
0.0
  0
LINE
  8
PLAN
  6
CONTINUOUS
 62
    11
  5
32F
 10
-42.687686
 20
-35.232546
 30
0.0
 11
-42.13656
 21
-35.088749
 31
0.0
  0
LINE
  8
PLAN
  6
CONTINUOUS
 62
    11
  5
330
 10
-42.13656
 20
-35.088749
 30
0.0
 11
-41.585139
 21
-34.946003
 31
0.0
  0
LINE
  8
PLAN
  6
CONTINUOUS
 62
    11
  5
331
 10
-41.585139
 20
-34.946003
 30
0.0
 11
-41.033783
 21
-34.803029
 31
0.0
  0
LINE
  8
PLAN
  6
CONTINUOUS
 62
    11
  5
332
 10
-41.033783
 20
-34.803029
 30
0.0
 11
-40.482847
 21
-34.658547
 31
0.0
  0
LINE
  8
PLAN
  6
CONTINUOUS
 62
    11
  5
333
 10
-40.482847
 20
-34.658547
 30
0.0
 11
-40.004796
 21
-34.531741
 31
0.0
  0
LINE
  8
PLAN
  6
CONTINUOUS
 62
    11
  5
334
 10
-40.004796
 20
-34.531741
 30
0.0
 11
-39.526785
 21
-34.404776
 31
0.0
  0
LINE
  8
PLAN
  6
CONTINUOUS
 62
    11
  5
335
 10
-39.526785
 20
-34.404776
 30
0.0
 11
-39.048639
 21
-34.278357
 31
0.0
  0
LINE
  8
PLAN
  6
CONTINUOUS
 62
    11
  5
336
 10
-39.048639
 20
-34.278357
 30
0.0
 11
-38.570181
 21
-34.153191
 31
0.0
  0
LINE
  8
PLAN
  6
CONTINUOUS
 62
    11
  5
337
 10
-38.570181
 20
-34.153191
 30
0.0
 11
-38.091237
 21
-34.029987
 31
0.0
  0
LINE
  8
PLAN
  6
CONTINUOUS
 62
    11
  5
338
 10
-38.091237
 20
-34.029987
 30
0.0
 11
-37.611632
 21
-33.909451
 31
0.0
  0
LINE
  8
PLAN
  6
CONTINUOUS
 62
    11
  5
339
 10
-37.611632
 20
-33.909451
 30
0.0
 11
-37.131189
 21
-33.79229
 31
0.0
  0
LINE
  8
PLAN
  6
CONTINUOUS
 62
    11
  5
33A
 10
-37.131189
 20
-33.79229
 30
0.0
 11
-36.649734
 21
-33.679211
 31
0.0
  0
LINE
  8
PLAN
  6
CONTINUOUS
 62
    11
  5
33B
 10
-36.649734
 20
-33.679211
 30
0.0
 11
-36.167091
 21
-33.570921
 31
0.0
  0
LINE
  8
PLAN
  6
CONTINUOUS
 62
    11
  5
33C
 10
-36.167091
 20
-33.570921
 30
0.0
 11
-35.683085
 21
-33.468127
 31
0.0
  0
LINE
  8
PLAN
  6
CONTINUOUS
 62
    11
  5
33D
 10
-35.683085
 20
-33.468127
 30
0.0
 11
-35.257167
 21
-33.383521
 31
0.0
  0
LINE
  8
PLAN
  6
CONTINUOUS
 62
    11
  5
33E
 10
-35.257167
 20
-33.383521
 30
0.0
 11
-34.830372
 21
-33.30444
 31
0.0
  0
LINE
  8
PLAN
  6
CONTINUOUS
 62
    11
  5
33F
 10
-34.830372
 20
-33.30444
 30
0.0
 11
-34.40281
 21
-33.230193
 31
0.0
  0
LINE
  8
PLAN
  6
CONTINUOUS
 62
    11
  5
340
 10
-34.40281
 20
-33.230193
 30
0.0
 11
-33.97459
 21
-33.160092
 31
0.0
  0
LINE
  8
PLAN
  6
CONTINUOUS
 62
    11
  5
341
 10
-33.97459
 20
-33.160092
 30
0.0
 11
-33.545821
 21
-33.093445
 31
0.0
  0
LINE
  8
PLAN
  6
CONTINUOUS
 62
    11
  5
342
 10
-33.545821
 20
-33.093445
 30
0.0
 11
-33.116613
 21
-33.029564
 31
0.0
  0
LINE
  8
PLAN
  6
CONTINUOUS
 62
    11
  5
343
 10
-33.116613
 20
-33.029564
 30
0.0
 11
-32.687076
 21
-32.967757
 31
0.0
  0
LINE
  8
PLAN
  6
CONTINUOUS
 62
    11
  5
344
 10
-32.687076
 20
-32.967757
 30
0.0
 11
-32.257319
 21
-32.907336
 31
0.0
  0
LINE
  8
PLAN
  6
CONTINUOUS
 62
    11
  5
345
 10
-32.257319
 20
-32.907336
 30
0.0
 11
-31.827452
 21
-32.847609
 31
0.0
  0
LINE
  8
PLAN
  6
CONTINUOUS
 62
    11
  5
346
 10
-31.827452
 20
-32.847609
 30
0.0
 11
-31.397584
 21
-32.787888
 31
0.0
  0
LINE
  8
PLAN
  6
CONTINUOUS
 62
    11
  5
347
 10
-31.397584
 20
-32.787888
 30
0.0
 11
-30.744032
 21
-32.69761
 31
0.0
  0
LINE
  8
PLAN
  6
CONTINUOUS
 62
    11
  5
348
 10
-30.744032
 20
-32.69761
 30
0.0
 11
-30.090266
 21
-32.609028
 31
0.0
  0
LINE
  8
PLAN
  6
CONTINUOUS
 62
    11
  5
349
 10
-30.125263
 20
-60.507648
 30
0.0
 11
-29.072343
 21
-60.474246
 31
0.0
  0
LINE
  8
PLAN
  6
CONTINUOUS
 62
    11
  5
34A
 10
-29.072343
 20
-60.474246
 30
0.0
 11
-28.019393
 21
-60.441792
 31
0.0
  0
LINE
  8
PLAN
  6
CONTINUOUS
 62
    11
  5
34B
 10
-28.019393
 20
-60.441792
 30
0.0
 11
-26.966425
 21
-60.40988
 31
0.0
  0
LINE
  8
PLAN
  6
CONTINUOUS
 62
    11
  5
34C
 10
-26.966425
 20
-60.40988
 30
0.0
 11
-25.913452
 21
-60.378103
 31
0.0
  0
LINE
  8
PLAN
  6
CONTINUOUS
 62
    11
  5
34D
 10
-25.913452
 20
-60.378103
 30
0.0
 11
-24.860488
 21
-60.346055
 31
0.0
  0
LINE
  8
PLAN
  6
CONTINUOUS
 62
    11
  5
34E
 10
-24.860488
 20
-60.346055
 30
0.0
 11
-23.807546
 21
-60.31333
 31
0.0
  0
LINE
  8
PLAN
  6
CONTINUOUS
 62
    11
  5
34F
 10
-23.807546
 20
-60.31333
 30
0.0
 11
-22.754639
 21
-60.279521
 31
0.0
  0
LINE
  8
PLAN
  6
CONTINUOUS
 62
    11
  5
350
 10
-22.754639
 20
-60.279521
 30
0.0
 11
-21.701781
 21
-60.244222
 31
0.0
  0
LINE
  8
PLAN
  6
CONTINUOUS
 62
    11
  5
351
 10
-21.701781
 20
-60.244222
 30
0.0
 11
-20.648983
 21
-60.207027
 31
0.0
  0
LINE
  8
PLAN
  6
CONTINUOUS
 62
    11
  5
352
 10
-20.648983
 20
-60.207027
 30
0.0
 11
-19.59626
 21
-60.167529
 31
0.0
  0
LINE
  8
PLAN
  6
CONTINUOUS
 62
    11
  5
353
 10
-19.59626
 20
-60.167529
 30
0.0
 11
-18.893113
 21
-60.140233
 31
0.0
  0
LINE
  8
PLAN
  6
CONTINUOUS
 62
    11
  5
354
 10
-18.893113
 20
-60.140233
 30
0.0
 11
-18.189984
 21
-60.112553
 31
0.0
  0
LINE
  8
PLAN
  6
CONTINUOUS
 62
    11
  5
355
 10
-18.189984
 20
-60.112553
 30
0.0
 11
-17.486894
 21
-60.084074
 31
0.0
  0
LINE
  8
PLAN
  6
CONTINUOUS
 62
    11
  5
356
 10
-17.486894
 20
-60.084074
 30
0.0
 11
-16.783863
 21
-60.05438
 31
0.0
  0
LINE
  8
PLAN
  6
CONTINUOUS
 62
    11
  5
357
 10
-16.783863
 20
-60.05438
 30
0.0
 11
-16.080911
 21
-60.023055
 31
0.0
  0
LINE
  8
PLAN
  6
CONTINUOUS
 62
    11
  5
358
 10
-16.080911
 20
-60.023055
 30
0.0
 11
-15.378058
 21
-59.989682
 31
0.0
  0
LINE
  8
PLAN
  6
CONTINUOUS
 62
    11
  5
359
 10
-15.378058
 20
-59.989682
 30
0.0
 11
-14.675324
 21
-59.953848
 31
0.0
  0
LINE
  8
PLAN
  6
CONTINUOUS
 62
    11
  5
35A
 10
-14.675324
 20
-59.953848
 30
0.0
 11
-13.972729
 21
-59.915134
 31
0.0
  0
LINE
  8
PLAN
  6
CONTINUOUS
 62
    11
  5
35B
 10
-13.972729
 20
-59.915134
 30
0.0
 11
-13.270294
 21
-59.873127
 31
0.0
  0
LINE
  8
PLAN
  6
CONTINUOUS
 62
    11
  5
35C
 10
-13.270294
 20
-59.873127
 30
0.0
 11
-12.568038
 21
-59.827409
 31
0.0
  0
LINE
  8
PLAN
  6
CONTINUOUS
 62
    11
  5
35D
 10
-12.568038
 20
-59.827409
 30
0.0
 11
-12.018402
 21
-59.78813
 31
0.0
  0
LINE
  8
PLAN
  6
CONTINUOUS
 62
    11
  5
35E
 10
-12.018402
 20
-59.78813
 30
0.0
 11
-11.4691
 21
-59.74526
 31
0.0
  0
LINE
  8
PLAN
  6
CONTINUOUS
 62
    11
  5
35F
 10
-11.4691
 20
-59.74526
 30
0.0
 11
-10.920098
 21
-59.699166
 31
0.0
  0
LINE
  8
PLAN
  6
CONTINUOUS
 62
    11
  5
360
 10
-10.920098
 20
-59.699166
 30
0.0
 11
-10.371361
 21
-59.650217
 31
0.0
  0
LINE
  8
PLAN
  6
CONTINUOUS
 62
    11
  5
361
 10
-10.371361
 20
-59.650217
 30
0.0
 11
-9.822856
 21
-59.598783
 31
0.0
  0
LINE
  8
PLAN
  6
CONTINUOUS
 62
    11
  5
362
 10
-9.822856
 20
-59.598783
 30
0.0
 11
-9.274547
 21
-59.545231
 31
0.0
  0
LINE
  8
PLAN
  6
CONTINUOUS
 62
    11
  5
363
 10
-9.274547
 20
-59.545231
 30
0.0
 11
-8.726401
 21
-59.489931
 31
0.0
  0
LINE
  8
PLAN
  6
CONTINUOUS
 62
    11
  5
364
 10
-8.726401
 20
-59.489931
 30
0.0
 11
-8.178384
 21
-59.433252
 31
0.0
  0
LINE
  8
PLAN
  6
CONTINUOUS
 62
    11
  5
365
 10
-8.178384
 20
-59.433252
 30
0.0
 11
-7.63046
 21
-59.375562
 31
0.0
  0
LINE
  8
PLAN
  6
CONTINUOUS
 62
    11
  5
366
 10
-7.63046
 20
-59.375562
 30
0.0
 11
-7.082596
 21
-59.317229
 31
0.0
  0
LINE
  8
PLAN
  6
CONTINUOUS
 62
    11
  5
367
 10
-7.082596
 20
-59.317229
 30
0.0
 11
-6.516051
 21
-59.256348
 31
0.0
  0
LINE
  8
PLAN
  6
CONTINUOUS
 62
    11
  5
368
 10
-6.516051
 20
-59.256348
 30
0.0
 11
-5.949611
 21
-59.194592
 31
0.0
  0
LINE
  8
PLAN
  6
CONTINUOUS
 62
    11
  5
369
 10
-5.949611
 20
-59.194592
 30
0.0
 11
-5.383309
 21
-59.131694
 31
0.0
  0
LINE
  8
PLAN
  6
CONTINUOUS
 62
    11
  5
36A
 10
-5.383309
 20
-59.131694
 30
0.0
 11
-4.817176
 21
-59.067386
 31
0.0
  0
LINE
  8
PLAN
  6
CONTINUOUS
 62
    11
  5
36B
 10
-4.817176
 20
-59.067386
 30
0.0
 11
-4.251244
 21
-59.001403
 31
0.0
  0
LINE
  8
PLAN
  6
CONTINUOUS
 62
    11
  5
36C
 10
-4.251244
 20
-59.001403
 30
0.0
 11
-3.685547
 21
-58.933476
 31
0.0
  0
LINE
  8
PLAN
  6
CONTINUOUS
 62
    11
  5
36D
 10
-3.685547
 20
-58.933476
 30
0.0
 11
-3.120115
 21
-58.863338
 31
0.0
  0
LINE
  8
PLAN
  6
CONTINUOUS
 62
    11
  5
36E
 10
-3.120115
 20
-58.863338
 30
0.0
 11
-2.55498
 21
-58.790723
 31
0.0
  0
LINE
  8
PLAN
  6
CONTINUOUS
 62
    11
  5
36F
 10
-2.55498
 20
-58.790723
 30
0.0
 11
-1.990177
 21
-58.715362
 31
0.0
  0
LINE
  8
PLAN
  6
CONTINUOUS
 62
    11
  5
370
 10
-1.990177
 20
-58.715362
 30
0.0
 11
-1.425735
 21
-58.63699
 31
0.0
  0
LINE
  8
PLAN
  6
CONTINUOUS
 62
    11
  5
371
 10
-1.425735
 20
-58.63699
 30
0.0
 11
-1.149515
 21
-58.59644
 31
0.0
  0
LINE
  8
PLAN
  6
CONTINUOUS
 62
    11
  5
372
 10
-1.149515
 20
-58.59644
 30
0.0
 11
-0.87379
 21
-58.553238
 31
0.0
  0
LINE
  8
PLAN
  6
CONTINUOUS
 62
    11
  5
373
 10
-0.87379
 20
-58.553238
 30
0.0
 11
-0.598534
 21
-58.507506
 31
0.0
  0
LINE
  8
PLAN
  6
CONTINUOUS
 62
    11
  5
374
 10
-0.598534
 20
-58.507506
 30
0.0
 11
-0.323727
 21
-58.459365
 31
0.0
  0
LINE
  8
PLAN
  6
CONTINUOUS
 62
    11
  5
375
 10
-0.323727
 20
-58.459365
 30
0.0
 11
-0.049345
 21
-58.40894
 31
0.0
  0
LINE
  8
PLAN
  6
CONTINUOUS
 62
    11
  5
376
 10
-0.049345
 20
-58.40894
 30
0.0
 11
0.224635
 21
-58.356351
 31
0.0
  0
LINE
  8
PLAN
  6
CONTINUOUS
 62
    11
  5
377
 10
0.224635
 20
-58.356351
 30
0.0
 11
0.498236
 21
-58.301721
 31
0.0
  0
LINE
  8
PLAN
  6
CONTINUOUS
 62
    11
  5
378
 10
0.498236
 20
-58.301721
 30
0.0
 11
0.771479
 21
-58.245173
 31
0.0
  0
LINE
  8
PLAN
  6
CONTINUOUS
 62
    11
  5
379
 10
0.771479
 20
-58.245173
 30
0.0
 11
1.044388
 21
-58.186829
 31
0.0
  0
LINE
  8
PLAN
  6
CONTINUOUS
 62
    11
  5
37A
 10
1.044388
 20
-58.186829
 30
0.0
 11
1.316986
 21
-58.12681
 31
0.0
  0
LINE
  8
PLAN
  6
CONTINUOUS
 62
    11
  5
37B
 10
1.316986
 20
-58.12681
 30
0.0
 11
1.730745
 21
-58.034253
 31
0.0
  0
LINE
  8
PLAN
  6
CONTINUOUS
 62
    11
  5
37C
 10
1.730745
 20
-58.034253
 30
0.0
 11
2.144325
 21
-57.940972
 31
0.0
  0
LINE
  8
PLAN
  6
CONTINUOUS
 62
    11
  5
37D
 10
2.144325
 20
-57.940972
 30
0.0
 11
2.557596
 21
-57.846449
 31
0.0
  0
LINE
  8
PLAN
  6
CONTINUOUS
 62
    11
  5
37E
 10
2.557596
 20
-57.846449
 30
0.0
 11
2.97043
 21
-57.750164
 31
0.0
  0
LINE
  8
PLAN
  6
CONTINUOUS
 62
    11
  5
37F
 10
2.97043
 20
-57.750164
 30
0.0
 11
3.3827
 21
-57.6516
 31
0.0
  0
LINE
  8
PLAN
  6
CONTINUOUS
 62
    11
  5
380
 10
3.3827
 20
-57.6516
 30
0.0
 11
3.794275
 21
-57.550239
 31
0.0
  0
LINE
  8
PLAN
  6
CONTINUOUS
 62
    11
  5
381
 10
3.794275
 20
-57.550239
 30
0.0
 11
4.205028
 21
-57.445562
 31
0.0
  0
LINE
  8
PLAN
  6
CONTINUOUS
 62
    11
  5
382
 10
4.205028
 20
-57.445562
 30
0.0
 11
4.61483
 21
-57.33705
 31
0.0
  0
LINE
  8
PLAN
  6
CONTINUOUS
 62
    11
  5
383
 10
4.61483
 20
-57.33705
 30
0.0
 11
5.023553
 21
-57.224186
 31
0.0
  0
LINE
  8
PLAN
  6
CONTINUOUS
 62
    11
  5
384
 10
5.023553
 20
-57.224186
 30
0.0
 11
5.431067
 21
-57.106451
 31
0.0
  0
LINE
  8
PLAN
  6
CONTINUOUS
 62
    11
  5
385
 10
5.431067
 20
-57.106451
 30
0.0
 11
5.635024
 21
-57.043197
 31
0.0
  0
LINE
  8
PLAN
  6
CONTINUOUS
 62
    11
  5
386
 10
5.635024
 20
-57.043197
 30
0.0
 11
5.837062
 21
-56.975083
 31
0.0
  0
LINE
  8
PLAN
  6
CONTINUOUS
 62
    11
  5
387
 10
5.837062
 20
-56.975083
 30
0.0
 11
6.037407
 21
-56.902684
 31
0.0
  0
LINE
  8
PLAN
  6
CONTINUOUS
 62
    11
  5
388
 10
6.037407
 20
-56.902684
 30
0.0
 11
6.236286
 21
-56.826574
 31
0.0
  0
LINE
  8
PLAN
  6
CONTINUOUS
 62
    11
  5
389
 10
6.236286
 20
-56.826574
 30
0.0
 11
6.433927
 21
-56.747329
 31
0.0
  0
LINE
  8
PLAN
  6
CONTINUOUS
 62
    11
  5
38A
 10
6.433927
 20
-56.747329
 30
0.0
 11
6.630556
 21
-56.665522
 31
0.0
  0
LINE
  8
PLAN
  6
CONTINUOUS
 62
    11
  5
38B
 10
6.630556
 20
-56.665522
 30
0.0
 11
6.8264
 21
-56.581729
 31
0.0
  0
LINE
  8
PLAN
  6
CONTINUOUS
 62
    11
  5
38C
 10
6.8264
 20
-56.581729
 30
0.0
 11
7.021687
 21
-56.496524
 31
0.0
  0
LINE
  8
PLAN
  6
CONTINUOUS
 62
    11
  5
38D
 10
7.021687
 20
-56.496524
 30
0.0
 11
7.216642
 21
-56.410481
 31
0.0
  0
LINE
  8
PLAN
  6
CONTINUOUS
 62
    11
  5
38E
 10
7.216642
 20
-56.410481
 30
0.0
 11
7.411494
 21
-56.324175
 31
0.0
  0
LINE
  8
PLAN
  6
CONTINUOUS
 62
    11
  5
38F
 10
7.411494
 20
-56.324175
 30
0.0
 11
7.434408
 21
-56.312987
 31
0.0
  0
LINE
  8
PLAN
  6
CONTINUOUS
 62
    11
  5
390
 10
7.434408
 20
-56.312987
 30
0.0
 11
7.455909
 21
-56.300375
 31
0.0
  0
LINE
  8
PLAN
  6
CONTINUOUS
 62
    11
  5
391
 10
7.455909
 20
-56.300375
 30
0.0
 11
7.476047
 21
-56.286389
 31
0.0
  0
LINE
  8
PLAN
  6
CONTINUOUS
 62
    11
  5
392
 10
7.476047
 20
-56.286389
 30
0.0
 11
7.494869
 21
-56.271077
 31
0.0
  0
LINE
  8
PLAN
  6
CONTINUOUS
 62
    11
  5
393
 10
7.494869
 20
-56.271077
 30
0.0
 11
7.512426
 21
-56.254489
 31
0.0
  0
LINE
  8
PLAN
  6
CONTINUOUS
 62
    11
  5
394
 10
7.512426
 20
-56.254489
 30
0.0
 11
7.528765
 21
-56.236673
 31
0.0
  0
LINE
  8
PLAN
  6
CONTINUOUS
 62
    11
  5
395
 10
7.528765
 20
-56.236673
 30
0.0
 11
7.543934
 21
-56.217679
 31
0.0
  0
LINE
  8
PLAN
  6
CONTINUOUS
 62
    11
  5
396
 10
7.543934
 20
-56.217679
 30
0.0
 11
7.557983
 21
-56.197555
 31
0.0
  0
LINE
  8
PLAN
  6
CONTINUOUS
 62
    11
  5
397
 10
7.557983
 20
-56.197555
 30
0.0
 11
7.570961
 21
-56.176351
 31
0.0
  0
LINE
  8
PLAN
  6
CONTINUOUS
 62
    11
  5
398
 10
7.570961
 20
-56.176351
 30
0.0
 11
7.582914
 21
-56.154116
 31
0.0
  0
LINE
  8
PLAN
  6
CONTINUOUS
 62
    11
  5
399
 10
7.582914
 20
-56.154116
 30
0.0
 11
7.625331
 21
-56.072365
 31
0.0
  0
LINE
  8
PLAN
  6
CONTINUOUS
 62
    11
  5
39A
 10
7.625331
 20
-56.072365
 30
0.0
 11
7.669001
 21
-55.991119
 31
0.0
  0
LINE
  8
PLAN
  6
CONTINUOUS
 62
    11
  5
39B
 10
7.669001
 20
-55.991119
 30
0.0
 11
7.712777
 21
-55.909916
 31
0.0
  0
LINE
  8
PLAN
  6
CONTINUOUS
 62
    11
  5
39C
 10
7.712777
 20
-55.909916
 30
0.0
 11
7.75551
 21
-55.828293
 31
0.0
  0
LINE
  8
PLAN
  6
CONTINUOUS
 62
    11
  5
39D
 10
7.75551
 20
-55.828293
 30
0.0
 11
7.796054
 21
-55.745787
 31
0.0
  0
LINE
  8
PLAN
  6
CONTINUOUS
 62
    11
  5
39E
 10
7.796054
 20
-55.745787
 30
0.0
 11
7.83326
 21
-55.661935
 31
0.0
  0
LINE
  8
PLAN
  6
CONTINUOUS
 62
    11
  5
39F
 10
7.83326
 20
-55.661935
 30
0.0
 11
7.865981
 21
-55.576275
 31
0.0
  0
LINE
  8
PLAN
  6
CONTINUOUS
 62
    11
  5
3A0
 10
7.865981
 20
-55.576275
 30
0.0
 11
7.893069
 21
-55.488344
 31
0.0
  0
LINE
  8
PLAN
  6
CONTINUOUS
 62
    11
  5
3A1
 10
7.893069
 20
-55.488344
 30
0.0
 11
7.913376
 21
-55.397678
 31
0.0
  0
LINE
  8
PLAN
  6
CONTINUOUS
 62
    11
  5
3A2
 10
7.913376
 20
-55.397678
 30
0.0
 11
7.925754
 21
-55.303816
 31
0.0
  0
LINE
  8
PLAN
  6
CONTINUOUS
 62
    11
  5
3A3
 10
7.925754
 20
-55.303816
 30
0.0
 11
7.93257
 21
-55.181324
 31
0.0
  0
LINE
  8
PLAN
  6
CONTINUOUS
 62
    11
  5
3A4
 10
7.93257
 20
-55.181324
 30
0.0
 11
7.932696
 21
-55.059796
 31
0.0
  0
LINE
  8
PLAN
  6
CONTINUOUS
 62
    11
  5
3A5
 10
7.932696
 20
-55.059796
 30
0.0
 11
7.926643
 21
-54.939157
 31
0.0
  0
LINE
  8
PLAN
  6
CONTINUOUS
 62
    11
  5
3A6
 10
7.926643
 20
-54.939157
 30
0.0
 11
7.914925
 21
-54.819334
 31
0.0
  0
LINE
  8
PLAN
  6
CONTINUOUS
 62
    11
  5
3A7
 10
7.914925
 20
-54.819334
 30
0.0
 11
7.898054
 21
-54.700253
 31
0.0
  0
LINE
  8
PLAN
  6
CONTINUOUS
 62
    11
  5
3A8
 10
7.898054
 20
-54.700253
 30
0.0
 11
7.876542
 21
-54.581841
 31
0.0
  0
LINE
  8
PLAN
  6
CONTINUOUS
 62
    11
  5
3A9
 10
7.876542
 20
-54.581841
 30
0.0
 11
7.850901
 21
-54.464022
 31
0.0
  0
LINE
  8
PLAN
  6
CONTINUOUS
 62
    11
  5
3AA
 10
7.850901
 20
-54.464022
 30
0.0
 11
7.821645
 21
-54.346725
 31
0.0
  0
LINE
  8
PLAN
  6
CONTINUOUS
 62
    11
  5
3AB
 10
7.821645
 20
-54.346725
 30
0.0
 11
7.789285
 21
-54.229874
 31
0.0
  0
LINE
  8
PLAN
  6
CONTINUOUS
 62
    11
  5
3AC
 10
7.789285
 20
-54.229874
 30
0.0
 11
7.754334
 21
-54.113397
 31
0.0
  0
LINE
  8
PLAN
  6
CONTINUOUS
 62
    11
  5
3AD
 10
7.754334
 20
-54.113397
 30
0.0
 11
7.717007
 21
-54.004256
 31
0.0
  0
LINE
  8
PLAN
  6
CONTINUOUS
 62
    11
  5
3AE
 10
7.717007
 20
-54.004256
 30
0.0
 11
7.67424
 21
-53.897855
 31
0.0
  0
LINE
  8
PLAN
  6
CONTINUOUS
 62
    11
  5
3AF
 10
7.67424
 20
-53.897855
 30
0.0
 11
7.626901
 21
-53.79376
 31
0.0
  0
LINE
  8
PLAN
  6
CONTINUOUS
 62
    11
  5
3B0
 10
7.626901
 20
-53.79376
 30
0.0
 11
7.575852
 21
-53.691534
 31
0.0
  0
LINE
  8
PLAN
  6
CONTINUOUS
 62
    11
  5
3B1
 10
7.575852
 20
-53.691534
 30
0.0
 11
7.521958
 21
-53.590742
 31
0.0
  0
LINE
  8
PLAN
  6
CONTINUOUS
 62
    11
  5
3B2
 10
7.521958
 20
-53.590742
 30
0.0
 11
7.466084
 21
-53.490947
 31
0.0
  0
LINE
  8
PLAN
  6
CONTINUOUS
 62
    11
  5
3B3
 10
7.466084
 20
-53.490947
 30
0.0
 11
7.409094
 21
-53.391716
 31
0.0
  0
LINE
  8
PLAN
  6
CONTINUOUS
 62
    11
  5
3B4
 10
7.409094
 20
-53.391716
 30
0.0
 11
7.351853
 21
-53.292611
 31
0.0
  0
LINE
  8
PLAN
  6
CONTINUOUS
 62
    11
  5
3B5
 10
7.351853
 20
-53.292611
 30
0.0
 11
7.295225
 21
-53.193196
 31
0.0
  0
LINE
  8
PLAN
  6
CONTINUOUS
 62
    11
  5
3B6
 10
7.295225
 20
-53.193196
 30
0.0
 11
7.240074
 21
-53.093038
 31
0.0
  0
LINE
  8
PLAN
  6
CONTINUOUS
 62
    11
  5
3B7
 10
7.240074
 20
-53.093038
 30
0.0
 11
7.15724
 21
-52.938373
 31
0.0
  0
LINE
  8
PLAN
  6
CONTINUOUS
 62
    11
  5
3B8
 10
7.15724
 20
-52.938373
 30
0.0
 11
7.074664
 21
-52.783565
 31
0.0
  0
LINE
  8
PLAN
  6
CONTINUOUS
 62
    11
  5
3B9
 10
7.074664
 20
-52.783565
 30
0.0
 11
6.992008
 21
-52.6288
 31
0.0
  0
LINE
  8
PLAN
  6
CONTINUOUS
 62
    11
  5
3BA
 10
6.992008
 20
-52.6288
 30
0.0
 11
6.908938
 21
-52.474268
 31
0.0
  0
LINE
  8
PLAN
  6
CONTINUOUS
 62
    11
  5
3BB
 10
6.908938
 20
-52.474268
 30
0.0
 11
6.825116
 21
-52.320157
 31
0.0
  0
LINE
  8
PLAN
  6
CONTINUOUS
 62
    11
  5
3BC
 10
6.825116
 20
-52.320157
 30
0.0
 11
6.740208
 21
-52.166654
 31
0.0
  0
LINE
  8
PLAN
  6
CONTINUOUS
 62
    11
  5
3BD
 10
6.740208
 20
-52.166654
 30
0.0
 11
6.653875
 21
-52.013949
 31
0.0
  0
LINE
  8
PLAN
  6
CONTINUOUS
 62
    11
  5
3BE
 10
6.653875
 20
-52.013949
 30
0.0
 11
6.565783
 21
-51.862229
 31
0.0
  0
LINE
  8
PLAN
  6
CONTINUOUS
 62
    11
  5
3BF
 10
6.565783
 20
-51.862229
 30
0.0
 11
6.475595
 21
-51.711683
 31
0.0
  0
LINE
  8
PLAN
  6
CONTINUOUS
 62
    11
  5
3C0
 10
6.475595
 20
-51.711683
 30
0.0
 11
6.382974
 21
-51.562499
 31
0.0
  0
LINE
  8
PLAN
  6
CONTINUOUS
 62
    11
  5
3C1
 10
6.382974
 20
-51.562499
 30
0.0
 11
6.277216
 21
-51.398023
 31
0.0
  0
LINE
  8
PLAN
  6
CONTINUOUS
 62
    11
  5
3C2
 10
6.277216
 20
-51.398023
 30
0.0
 11
6.169327
 21
-51.235044
 31
0.0
  0
LINE
  8
PLAN
  6
CONTINUOUS
 62
    11
  5
3C3
 10
6.169327
 20
-51.235044
 30
0.0
 11
6.059558
 21
-51.073386
 31
0.0
  0
LINE
  8
PLAN
  6
CONTINUOUS
 62
    11
  5
3C4
 10
6.059558
 20
-51.073386
 30
0.0
 11
5.94816
 21
-50.912872
 31
0.0
  0
LINE
  8
PLAN
  6
CONTINUOUS
 62
    11
  5
3C5
 10
5.94816
 20
-50.912872
 30
0.0
 11
5.835386
 21
-50.753327
 31
0.0
  0
LINE
  8
PLAN
  6
CONTINUOUS
 62
    11
  5
3C6
 10
5.835386
 20
-50.753327
 30
0.0
 11
5.721485
 21
-50.594572
 31
0.0
  0
LINE
  8
PLAN
  6
CONTINUOUS
 62
    11
  5
3C7
 10
5.721485
 20
-50.594572
 30
0.0
 11
5.606709
 21
-50.436432
 31
0.0
  0
LINE
  8
PLAN
  6
CONTINUOUS
 62
    11
  5
3C8
 10
5.606709
 20
-50.436432
 30
0.0
 11
5.491311
 21
-50.278731
 31
0.0
  0
LINE
  8
PLAN
  6
CONTINUOUS
 62
    11
  5
3C9
 10
5.491311
 20
-50.278731
 30
0.0
 11
5.375539
 21
-50.121291
 31
0.0
  0
LINE
  8
PLAN
  6
CONTINUOUS
 62
    11
  5
3CA
 10
5.375539
 20
-50.121291
 30
0.0
 11
5.259647
 21
-49.963936
 31
0.0
  0
LINE
  8
PLAN
  6
CONTINUOUS
 62
    11
  5
3CB
 10
5.259647
 20
-49.963936
 30
0.0
 11
5.058689
 21
-49.688252
 31
0.0
  0
LINE
  8
PLAN
  6
CONTINUOUS
 62
    11
  5
3CC
 10
5.058689
 20
-49.688252
 30
0.0
 11
4.859597
 21
-49.411157
 31
0.0
  0
LINE
  8
PLAN
  6
CONTINUOUS
 62
    11
  5
3CD
 10
4.859597
 20
-49.411157
 30
0.0
 11
4.661277
 21
-49.13348
 31
0.0
  0
LINE
  8
PLAN
  6
CONTINUOUS
 62
    11
  5
3CE
 10
4.661277
 20
-49.13348
 30
0.0
 11
4.462632
 21
-48.856047
 31
0.0
  0
LINE
  8
PLAN
  6
CONTINUOUS
 62
    11
  5
3CF
 10
4.462632
 20
-48.856047
 30
0.0
 11
4.262568
 21
-48.579687
 31
0.0
  0
LINE
  8
PLAN
  6
CONTINUOUS
 62
    11
  5
3D0
 10
4.262568
 20
-48.579687
 30
0.0
 11
4.059989
 21
-48.305229
 31
0.0
  0
LINE
  8
PLAN
  6
CONTINUOUS
 62
    11
  5
3D1
 10
4.059989
 20
-48.305229
 30
0.0
 11
3.853798
 21
-48.033501
 31
0.0
  0
LINE
  8
PLAN
  6
CONTINUOUS
 62
    11
  5
3D2
 10
3.853798
 20
-48.033501
 30
0.0
 11
3.642901
 21
-47.765331
 31
0.0
  0
LINE
  8
PLAN
  6
CONTINUOUS
 62
    11
  5
3D3
 10
3.642901
 20
-47.765331
 30
0.0
 11
3.426203
 21
-47.501547
 31
0.0
  0
LINE
  8
PLAN
  6
CONTINUOUS
 62
    11
  5
3D4
 10
3.426203
 20
-47.501547
 30
0.0
 11
3.202607
 21
-47.242978
 31
0.0
  0
LINE
  8
PLAN
  6
CONTINUOUS
 62
    11
  5
3D5
 10
3.202607
 20
-47.242978
 30
0.0
 11
2.911331
 21
-46.919451
 31
0.0
  0
LINE
  8
PLAN
  6
CONTINUOUS
 62
    11
  5
3D6
 10
2.911331
 20
-46.919451
 30
0.0
 11
2.616311
 21
-46.5997
 31
0.0
  0
LINE
  8
PLAN
  6
CONTINUOUS
 62
    11
  5
3D7
 10
2.616311
 20
-46.5997
 30
0.0
 11
2.31751
 21
-46.283758
 31
0.0
  0
LINE
  8
PLAN
  6
CONTINUOUS
 62
    11
  5
3D8
 10
2.31751
 20
-46.283758
 30
0.0
 11
2.014893
 21
-45.971664
 31
0.0
  0
LINE
  8
PLAN
  6
CONTINUOUS
 62
    11
  5
3D9
 10
2.014893
 20
-45.971664
 30
0.0
 11
1.708425
 21
-45.663452
 31
0.0
  0
LINE
  8
PLAN
  6
CONTINUOUS
 62
    11
  5
3DA
 10
1.708425
 20
-45.663452
 30
0.0
 11
1.398068
 21
-45.359159
 31
0.0
  0
LINE
  8
PLAN
  6
CONTINUOUS
 62
    11
  5
3DB
 10
1.398068
 20
-45.359159
 30
0.0
 11
1.083788
 21
-45.058821
 31
0.0
  0
LINE
  8
PLAN
  6
CONTINUOUS
 62
    11
  5
3DC
 10
1.083788
 20
-45.058821
 30
0.0
 11
0.765548
 21
-44.762475
 31
0.0
  0
LINE
  8
PLAN
  6
CONTINUOUS
 62
    11
  5
3DD
 10
0.765548
 20
-44.762475
 30
0.0
 11
0.443312
 21
-44.470156
 31
0.0
  0
LINE
  8
PLAN
  6
CONTINUOUS
 62
    11
  5
3DE
 10
0.443312
 20
-44.470156
 30
0.0
 11
0.117046
 21
-44.1819
 31
0.0
  0
LINE
  8
PLAN
  6
CONTINUOUS
 62
    11
  5
3DF
 10
0.117046
 20
-44.1819
 30
0.0
 11
-0.126173
 21
-43.975713
 31
0.0
  0
LINE
  8
PLAN
  6
CONTINUOUS
 62
    11
  5
3E0
 10
-0.126173
 20
-43.975713
 30
0.0
 11
-0.374181
 21
-43.776107
 31
0.0
  0
LINE
  8
PLAN
  6
CONTINUOUS
 62
    11
  5
3E1
 10
-0.374181
 20
-43.776107
 30
0.0
 11
-0.62634
 21
-43.582208
 31
0.0
  0
LINE
  8
PLAN
  6
CONTINUOUS
 62
    11
  5
3E2
 10
-0.62634
 20
-43.582208
 30
0.0
 11
-0.882014
 21
-43.393142
 31
0.0
  0
LINE
  8
PLAN
  6
CONTINUOUS
 62
    11
  5
3E3
 10
-0.882014
 20
-43.393142
 30
0.0
 11
-1.140569
 21
-43.208034
 31
0.0
  0
LINE
  8
PLAN
  6
CONTINUOUS
 62
    11
  5
3E4
 10
-1.140569
 20
-43.208034
 30
0.0
 11
-1.401365
 21
-43.026008
 31
0.0
  0
LINE
  8
PLAN
  6
CONTINUOUS
 62
    11
  5
3E5
 10
-1.401365
 20
-43.026008
 30
0.0
 11
-1.663769
 21
-42.846191
 31
0.0
  0
LINE
  8
PLAN
  6
CONTINUOUS
 62
    11
  5
3E6
 10
-1.663769
 20
-42.846191
 30
0.0
 11
-1.927143
 21
-42.667707
 31
0.0
  0
LINE
  8
PLAN
  6
CONTINUOUS
 62
    11
  5
3E7
 10
-1.927143
 20
-42.667707
 30
0.0
 11
-2.19085
 21
-42.489682
 31
0.0
  0
LINE
  8
PLAN
  6
CONTINUOUS
 62
    11
  5
3E8
 10
-2.19085
 20
-42.489682
 30
0.0
 11
-2.454255
 21
-42.311241
 31
0.0
  0
LINE
  8
PLAN
  6
CONTINUOUS
 62
    11
  5
3E9
 10
-2.454255
 20
-42.311241
 30
0.0
 11
-2.791902
 21
-42.08211
 31
0.0
  0
LINE
  8
PLAN
  6
CONTINUOUS
 62
    11
  5
3EA
 10
-2.791902
 20
-42.08211
 30
0.0
 11
-3.130183
 21
-41.853962
 31
0.0
  0
LINE
  8
PLAN
  6
CONTINUOUS
 62
    11
  5
3EB
 10
-3.130183
 20
-41.853962
 30
0.0
 11
-3.469292
 21
-41.627098
 31
0.0
  0
LINE
  8
PLAN
  6
CONTINUOUS
 62
    11
  5
3EC
 10
-3.469292
 20
-41.627098
 30
0.0
 11
-3.809425
 21
-41.401822
 31
0.0
  0
LINE
  8
PLAN
  6
CONTINUOUS
 62
    11
  5
3ED
 10
-3.809425
 20
-41.401822
 30
0.0
 11
-4.150777
 21
-41.178437
 31
0.0
  0
LINE
  8
PLAN
  6
CONTINUOUS
 62
    11
  5
3EE
 10
-4.150777
 20
-41.178437
 30
0.0
 11
-4.493543
 21
-40.957244
 31
0.0
  0
LINE
  8
PLAN
  6
CONTINUOUS
 62
    11
  5
3EF
 10
-4.493543
 20
-40.957244
 30
0.0
 11
-4.837919
 21
-40.738548
 31
0.0
  0
LINE
  8
PLAN
  6
CONTINUOUS
 62
    11
  5
3F0
 10
-4.837919
 20
-40.738548
 30
0.0
 11
-5.1841
 21
-40.522651
 31
0.0
  0
LINE
  8
PLAN
  6
CONTINUOUS
 62
    11
  5
3F1
 10
-5.1841
 20
-40.522651
 30
0.0
 11
-5.53228
 21
-40.309855
 31
0.0
  0
LINE
  8
PLAN
  6
CONTINUOUS
 62
    11
  5
3F2
 10
-5.53228
 20
-40.309855
 30
0.0
 11
-5.882656
 21
-40.100463
 31
0.0
  0
LINE
  8
PLAN
  6
CONTINUOUS
 62
    11
  5
3F3
 10
-5.882656
 20
-40.100463
 30
0.0
 11
-6.252486
 21
-39.882912
 31
0.0
  0
LINE
  8
PLAN
  6
CONTINUOUS
 62
    11
  5
3F4
 10
-6.252486
 20
-39.882912
 30
0.0
 11
-6.623191
 21
-39.666978
 31
0.0
  0
LINE
  8
PLAN
  6
CONTINUOUS
 62
    11
  5
3F5
 10
-6.623191
 20
-39.666978
 30
0.0
 11
-6.995051
 21
-39.453177
 31
0.0
  0
LINE
  8
PLAN
  6
CONTINUOUS
 62
    11
  5
3F6
 10
-6.995051
 20
-39.453177
 30
0.0
 11
-7.368345
 21
-39.242028
 31
0.0
  0
LINE
  8
PLAN
  6
CONTINUOUS
 62
    11
  5
3F7
 10
-7.368345
 20
-39.242028
 30
0.0
 11
-7.743353
 21
-39.034046
 31
0.0
  0
LINE
  8
PLAN
  6
CONTINUOUS
 62
    11
  5
3F8
 10
-7.743353
 20
-39.034046
 30
0.0
 11
-8.120356
 21
-38.829748
 31
0.0
  0
LINE
  8
PLAN
  6
CONTINUOUS
 62
    11
  5
3F9
 10
-8.120356
 20
-38.829748
 30
0.0
 11
-8.499631
 21
-38.629652
 31
0.0
  0
LINE
  8
PLAN
  6
CONTINUOUS
 62
    11
  5
3FA
 10
-8.499631
 20
-38.629652
 30
0.0
 11
-8.88146
 21
-38.434275
 31
0.0
  0
LINE
  8
PLAN
  6
CONTINUOUS
 62
    11
  5
3FB
 10
-8.88146
 20
-38.434275
 30
0.0
 11
-9.266122
 21
-38.244134
 31
0.0
  0
LINE
  8
PLAN
  6
CONTINUOUS
 62
    11
  5
3FC
 10
-9.266122
 20
-38.244134
 30
0.0
 11
-9.653897
 21
-38.059744
 31
0.0
  0
LINE
  8
PLAN
  6
CONTINUOUS
 62
    11
  5
3FD
 10
-9.653897
 20
-38.059744
 30
0.0
 11
-10.107884
 21
-37.850789
 31
0.0
  0
LINE
  8
PLAN
  6
CONTINUOUS
 62
    11
  5
3FE
 10
-10.107884
 20
-37.850789
 30
0.0
 11
-10.563597
 21
-37.646104
 31
0.0
  0
LINE
  8
PLAN
  6
CONTINUOUS
 62
    11
  5
3FF
 10
-10.563597
 20
-37.646104
 30
0.0
 11
-11.021127
 21
-37.445914
 31
0.0
  0
LINE
  8
PLAN
  6
CONTINUOUS
 62
    11
  5
400
 10
-11.021127
 20
-37.445914
 30
0.0
 11
-11.480562
 21
-37.250439
 31
0.0
  0
LINE
  8
PLAN
  6
CONTINUOUS
 62
    11
  5
401
 10
-11.480562
 20
-37.250439
 30
0.0
 11
-11.941994
 21
-37.059903
 31
0.0
  0
LINE
  8
PLAN
  6
CONTINUOUS
 62
    11
  5
402
 10
-11.941994
 20
-37.059903
 30
0.0
 11
-12.405511
 21
-36.874528
 31
0.0
  0
LINE
  8
PLAN
  6
CONTINUOUS
 62
    11
  5
403
 10
-12.405511
 20
-36.874528
 30
0.0
 11
-12.871205
 21
-36.694536
 31
0.0
  0
LINE
  8
PLAN
  6
CONTINUOUS
 62
    11
  5
404
 10
-12.871205
 20
-36.694536
 30
0.0
 11
-13.339164
 21
-36.52015
 31
0.0
  0
LINE
  8
PLAN
  6
CONTINUOUS
 62
    11
  5
405
 10
-13.339164
 20
-36.52015
 30
0.0
 11
-13.809478
 21
-36.351592
 31
0.0
  0
LINE
  8
PLAN
  6
CONTINUOUS
 62
    11
  5
406
 10
-13.809478
 20
-36.351592
 30
0.0
 11
-14.282239
 21
-36.189086
 31
0.0
  0
LINE
  8
PLAN
  6
CONTINUOUS
 62
    11
  5
407
 10
-14.282239
 20
-36.189086
 30
0.0
 11
-14.824106
 21
-36.012101
 31
0.0
  0
LINE
  8
PLAN
  6
CONTINUOUS
 62
    11
  5
408
 10
-14.824106
 20
-36.012101
 30
0.0
 11
-15.368409
 21
-35.843848
 31
0.0
  0
LINE
  8
PLAN
  6
CONTINUOUS
 62
    11
  5
409
 10
-15.368409
 20
-35.843848
 30
0.0
 11
-15.914791
 21
-35.683045
 31
0.0
  0
LINE
  8
PLAN
  6
CONTINUOUS
 62
    11
  5
40A
 10
-15.914791
 20
-35.683045
 30
0.0
 11
-16.462895
 21
-35.528414
 31
0.0
  0
LINE
  8
PLAN
  6
CONTINUOUS
 62
    11
  5
40B
 10
-16.462895
 20
-35.528414
 30
0.0
 11
-17.012364
 21
-35.378674
 31
0.0
  0
LINE
  8
PLAN
  6
CONTINUOUS
 62
    11
  5
40C
 10
-17.012364
 20
-35.378674
 30
0.0
 11
-17.56284
 21
-35.232546
 31
0.0
  0
LINE
  8
PLAN
  6
CONTINUOUS
 62
    11
  5
40D
 10
-17.56284
 20
-35.232546
 30
0.0
 11
-18.113967
 21
-35.088749
 31
0.0
  0
LINE
  8
PLAN
  6
CONTINUOUS
 62
    11
  5
40E
 10
-18.113967
 20
-35.088749
 30
0.0
 11
-18.665388
 21
-34.946003
 31
0.0
  0
LINE
  8
PLAN
  6
CONTINUOUS
 62
    11
  5
40F
 10
-18.665388
 20
-34.946003
 30
0.0
 11
-19.216744
 21
-34.803029
 31
0.0
  0
LINE
  8
PLAN
  6
CONTINUOUS
 62
    11
  5
410
 10
-19.216744
 20
-34.803029
 30
0.0
 11
-19.76768
 21
-34.658547
 31
0.0
  0
LINE
  8
PLAN
  6
CONTINUOUS
 62
    11
  5
411
 10
-19.76768
 20
-34.658547
 30
0.0
 11
-20.245731
 21
-34.531741
 31
0.0
  0
LINE
  8
PLAN
  6
CONTINUOUS
 62
    11
  5
412
 10
-20.245731
 20
-34.531741
 30
0.0
 11
-20.723742
 21
-34.404776
 31
0.0
  0
LINE
  8
PLAN
  6
CONTINUOUS
 62
    11
  5
413
 10
-20.723742
 20
-34.404776
 30
0.0
 11
-21.201888
 21
-34.278357
 31
0.0
  0
LINE
  8
PLAN
  6
CONTINUOUS
 62
    11
  5
414
 10
-21.201888
 20
-34.278357
 30
0.0
 11
-21.680346
 21
-34.153191
 31
0.0
  0
LINE
  8
PLAN
  6
CONTINUOUS
 62
    11
  5
415
 10
-21.680346
 20
-34.153191
 30
0.0
 11
-22.159289
 21
-34.029987
 31
0.0
  0
LINE
  8
PLAN
  6
CONTINUOUS
 62
    11
  5
416
 10
-22.159289
 20
-34.029987
 30
0.0
 11
-22.638895
 21
-33.909451
 31
0.0
  0
LINE
  8
PLAN
  6
CONTINUOUS
 62
    11
  5
417
 10
-22.638895
 20
-33.909451
 30
0.0
 11
-23.119338
 21
-33.79229
 31
0.0
  0
LINE
  8
PLAN
  6
CONTINUOUS
 62
    11
  5
418
 10
-23.119338
 20
-33.79229
 30
0.0
 11
-23.600793
 21
-33.679211
 31
0.0
  0
LINE
  8
PLAN
  6
CONTINUOUS
 62
    11
  5
419
 10
-23.600793
 20
-33.679211
 30
0.0
 11
-24.083435
 21
-33.570921
 31
0.0
  0
LINE
  8
PLAN
  6
CONTINUOUS
 62
    11
  5
41A
 10
-24.083435
 20
-33.570921
 30
0.0
 11
-24.567442
 21
-33.468127
 31
0.0
  0
LINE
  8
PLAN
  6
CONTINUOUS
 62
    11
  5
41B
 10
-24.567442
 20
-33.468127
 30
0.0
 11
-24.99336
 21
-33.383521
 31
0.0
  0
LINE
  8
PLAN
  6
CONTINUOUS
 62
    11
  5
41C
 10
-24.99336
 20
-33.383521
 30
0.0
 11
-25.420154
 21
-33.30444
 31
0.0
  0
LINE
  8
PLAN
  6
CONTINUOUS
 62
    11
  5
41D
 10
-25.420154
 20
-33.30444
 30
0.0
 11
-25.847717
 21
-33.230193
 31
0.0
  0
LINE
  8
PLAN
  6
CONTINUOUS
 62
    11
  5
41E
 10
-25.847717
 20
-33.230193
 30
0.0
 11
-26.275937
 21
-33.160092
 31
0.0
  0
LINE
  8
PLAN
  6
CONTINUOUS
 62
    11
  5
41F
 10
-26.275937
 20
-33.160092
 30
0.0
 11
-26.704706
 21
-33.093445
 31
0.0
  0
LINE
  8
PLAN
  6
CONTINUOUS
 62
    11
  5
420
 10
-26.704706
 20
-33.093445
 30
0.0
 11
-27.133914
 21
-33.029564
 31
0.0
  0
LINE
  8
PLAN
  6
CONTINUOUS
 62
    11
  5
421
 10
-27.133914
 20
-33.029564
 30
0.0
 11
-27.563451
 21
-32.967757
 31
0.0
  0
LINE
  8
PLAN
  6
CONTINUOUS
 62
    11
  5
422
 10
-27.563451
 20
-32.967757
 30
0.0
 11
-27.993208
 21
-32.907336
 31
0.0
  0
LINE
  8
PLAN
  6
CONTINUOUS
 62
    11
  5
423
 10
-27.993208
 20
-32.907336
 30
0.0
 11
-28.423075
 21
-32.847609
 31
0.0
  0
LINE
  8
PLAN
  6
CONTINUOUS
 62
    11
  5
424
 10
-28.423075
 20
-32.847609
 30
0.0
 11
-28.852943
 21
-32.787888
 31
0.0
  0
LINE
  8
PLAN
  6
CONTINUOUS
 62
    11
  5
425
 10
-28.852943
 20
-32.787888
 30
0.0
 11
-29.506494
 21
-32.69761
 31
0.0
  0
LINE
  8
PLAN
  6
CONTINUOUS
 62
    11
  5
426
 10
-29.506494
 20
-32.69761
 30
0.0
 11
-30.160261
 21
-32.609028
 31
0.0
  0
CIRCLE
  8
PLAN
  6
CONTINUOUS
 62
     8
  5
427
 10
-29.506494
 20
-41.69761
 30
0.0
 40
2.25
  0
CIRCLE
  8
PLAN
  6
CONTINUOUS
 62
     8
  5
428
 10
-29.506494
 20
-41.69761
 30
0.0
 40
1.25
  0
ARC
  8
PLAN
  6
CONTINUOUS
 62
    11
  5
429
 10
91.791122
 20
82.203068
 30
0.0
 40
1.571612
 50
-73.555856
 51
-26.672567
  0
ARC
  8
PLAN
  6
CONTINUOUS
 62
    11
  5
42A
 10
89.790881
 20
83.284761
 30
0.0
 40
3.845176
 50
-27.696239
 51
-2.121614
  0
ARC
  8
PLAN
  6
CONTINUOUS
 62
    11
  5
42B
 10
86.874002
 20
83.512232
 30
0.0
 40
6.769528
 50
-3.13165
 51
14.345315
  0
ARC
  8
PLAN
  6
CONTINUOUS
 62
    11
  5
42C
 10
86.856288
 20
83.583086
 30
0.0
 40
6.769528
 50
13.727164
 51
31.204129
  0
ARC
  8
PLAN
  6
CONTINUOUS
 62
    11
  5
42D
 10
89.32296
 20
85.156444
 30
0.0
 40
3.845176
 50
30.194093
 51
55.768719
  0
ARC
  8
PLAN
  6
CONTINUOUS
 62
    11
  5
42E
 10
90.578847
 20
87.052169
 30
0.0
 40
1.571612
 50
54.745045
 51
101.628347
  0
ARC
  8
PLAN
  6
CONTINUOUS
 62
    11
  5
42F
 10
90.706961
 20
87.084197
 30
0.0
 40
1.571612
 50
106.444133
 51
153.327434
  0
ARC
  8
PLAN
  6
CONTINUOUS
 62
    11
  5
430
 10
92.707202
 20
86.002504
 30
0.0
 40
3.845176
 50
152.303761
 51
177.878386
  0
ARC
  8
PLAN
  6
CONTINUOUS
 62
    11
  5
431
 10
95.624081
 20
85.775033
 30
0.0
 40
6.769528
 50
176.86835
 51
-165.654685
  0
ARC
  8
PLAN
  6
CONTINUOUS
 62
    11
  5
432
 10
95.641794
 20
85.704179
 30
0.0
 40
6.769528
 50
-166.272836
 51
-148.795871
  0
ARC
  8
PLAN
  6
CONTINUOUS
 62
    11
  5
433
 10
93.175122
 20
84.130821
 30
0.0
 40
3.845176
 50
-149.805907
 51
-124.231281
  0
ARC
  8
PLAN
  6
CONTINUOUS
 62
    11
  5
434
 10
91.919236
 20
82.235096
 30
0.0
 40
1.571611
 50
-125.254955
 51
-78.371642
  0
ARC
  8
PLAN
  6
CONTINUOUS
 62
    11
  5
435
 10
91.40722
 20
84.365523
 30
0.0
 40
0.60874
 50
-74.975125
 51
-35.014461
  0
ARC
  8
PLAN
  6
CONTINUOUS
 62
    11
  5
436
 10
91.073402
 20
84.600146
 30
0.0
 40
1.016763
 50
-35.04938
 51
-6.797811
  0
ARC
  8
PLAN
  6
CONTINUOUS
 62
    11
  5
437
 10
90.599955
 20
84.674168
 30
0.0
 40
1.495745
 50
-7.466682
 51
14.317533
  0
ARC
  8
PLAN
  6
CONTINUOUS
 62
    11
  5
438
 10
90.596393
 20
84.688416
 30
0.0
 40
1.495745
 50
13.754947
 51
35.539161
  0
ARC
  8
PLAN
  6
CONTINUOUS
 62
    11
  5
439
 10
90.979307
 20
84.976527
 30
0.0
 40
1.016763
 50
34.87029
 51
63.121859
  0
ARC
  8
PLAN
  6
CONTINUOUS
 62
    11
  5
43A
 10
91.163441
 20
85.340639
 30
0.0
 40
0.60874
 50
63.08694
 51
103.047611
  0
ARC
  8
PLAN
  6
CONTINUOUS
 62
    11
  5
43B
 10
91.18382
 20
85.345734
 30
0.0
 40
0.60874
 50
105.024868
 51
144.985539
  0
ARC
  8
PLAN
  6
CONTINUOUS
 62
    11
  5
43C
 10
91.517638
 20
85.11111
 30
0.0
 40
1.016763
 50
144.95062
 51
173.202189
  0
ARC
  8
PLAN
  6
CONTINUOUS
 62
    11
  5
43D
 10
91.991084
 20
85.037089
 30
0.0
 40
1.495745
 50
172.533318
 51
-165.682467
  0
ARC
  8
PLAN
  6
CONTINUOUS
 62
    11
  5
43E
 10
91.994646
 20
85.02284
 30
0.0
 40
1.495745
 50
-166.245053
 51
-144.460839
  0
ARC
  8
PLAN
  6
CONTINUOUS
 62
    11
  5
43F
 10
91.611733
 20
84.734729
 30
0.0
 40
1.016763
 50
-145.12971
 51
-116.878141
  0
ARC
  8
PLAN
  6
CONTINUOUS
 62
    11
  5
440
 10
91.427599
 20
84.370617
 30
0.0
 40
0.60874
 50
-116.91306
 51
-76.952389
  0
LINE
  8
PLAN
  6
CONTINUOUS
 62
    11
  5
441
 10
103.018123
 20
64.364708
 30
0.0
 11
103.02433
 21
64.756021
 31
0.0
  0
LINE
  8
PLAN
  6
CONTINUOUS
 62
    11
  5
442
 10
103.02433
 20
64.756021
 30
0.0
 11
103.034301
 21
65.147297
 31
0.0
  0
LINE
  8
PLAN
  6
CONTINUOUS
 62
    11
  5
443
 10
103.034301
 20
65.147297
 30
0.0
 11
103.046422
 21
65.538552
 31
0.0
  0
LINE
  8
PLAN
  6
CONTINUOUS
 62
    11
  5
444
 10
103.046422
 20
65.538552
 30
0.0
 11
103.059081
 21
65.929802
 31
0.0
  0
LINE
  8
PLAN
  6
CONTINUOUS
 62
    11
  5
445
 10
103.059081
 20
65.929802
 30
0.0
 11
103.070665
 21
66.321062
 31
0.0
  0
LINE
  8
PLAN
  6
CONTINUOUS
 62
    11
  5
446
 10
103.070665
 20
66.321062
 30
0.0
 11
103.07956
 21
66.712349
 31
0.0
  0
LINE
  8
PLAN
  6
CONTINUOUS
 62
    11
  5
447
 10
103.07956
 20
66.712349
 30
0.0
 11
103.084154
 21
67.103677
 31
0.0
  0
LINE
  8
PLAN
  6
CONTINUOUS
 62
    11
  5
448
 10
103.084154
 20
67.103677
 30
0.0
 11
103.082833
 21
67.495062
 31
0.0
  0
LINE
  8
PLAN
  6
CONTINUOUS
 62
    11
  5
449
 10
103.082833
 20
67.495062
 30
0.0
 11
103.073983
 21
67.88652
 31
0.0
  0
LINE
  8
PLAN
  6
CONTINUOUS
 62
    11
  5
44A
 10
103.073983
 20
67.88652
 30
0.0
 11
103.055993
 21
68.278067
 31
0.0
  0
LINE
  8
PLAN
  6
CONTINUOUS
 62
    11
  5
44B
 10
103.055993
 20
68.278067
 30
0.0
 11
103.025473
 21
68.721288
 31
0.0
  0
LINE
  8
PLAN
  6
CONTINUOUS
 62
    11
  5
44C
 10
103.025473
 20
68.721288
 30
0.0
 11
102.987007
 21
69.163556
 31
0.0
  0
LINE
  8
PLAN
  6
CONTINUOUS
 62
    11
  5
44D
 10
102.987007
 20
69.163556
 30
0.0
 11
102.941714
 21
69.605004
 31
0.0
  0
LINE
  8
PLAN
  6
CONTINUOUS
 62
    11
  5
44E
 10
102.941714
 20
69.605004
 30
0.0
 11
102.890712
 21
70.045768
 31
0.0
  0
LINE
  8
PLAN
  6
CONTINUOUS
 62
    11
  5
44F
 10
102.890712
 20
70.045768
 30
0.0
 11
102.835119
 21
70.485981
 31
0.0
  0
LINE
  8
PLAN
  6
CONTINUOUS
 62
    11
  5
450
 10
102.835119
 20
70.485981
 30
0.0
 11
102.776054
 21
70.925777
 31
0.0
  0
LINE
  8
PLAN
  6
CONTINUOUS
 62
    11
  5
451
 10
102.776054
 20
70.925777
 30
0.0
 11
102.714634
 21
71.365291
 31
0.0
  0
LINE
  8
PLAN
  6
CONTINUOUS
 62
    11
  5
452
 10
102.714634
 20
71.365291
 30
0.0
 11
102.651979
 21
71.804656
 31
0.0
  0
LINE
  8
PLAN
  6
CONTINUOUS
 62
    11
  5
453
 10
102.651979
 20
71.804656
 30
0.0
 11
102.589205
 21
72.244007
 31
0.0
  0
LINE
  8
PLAN
  6
CONTINUOUS
 62
    11
  5
454
 10
102.589205
 20
72.244007
 30
0.0
 11
102.527432
 21
72.683479
 31
0.0
  0
LINE
  8
PLAN
  6
CONTINUOUS
 62
    11
  5
455
 10
102.527432
 20
72.683479
 30
0.0
 11
102.467366
 21
73.1148
 31
0.0
  0
LINE
  8
PLAN
  6
CONTINUOUS
 62
    11
  5
456
 10
102.467366
 20
73.1148
 30
0.0
 11
102.406474
 21
73.54599
 31
0.0
  0
LINE
  8
PLAN
  6
CONTINUOUS
 62
    11
  5
457
 10
102.406474
 20
73.54599
 30
0.0
 11
102.344423
 21
73.976998
 31
0.0
  0
LINE
  8
PLAN
  6
CONTINUOUS
 62
    11
  5
458
 10
102.344423
 20
73.976998
 30
0.0
 11
102.280883
 21
74.407772
 31
0.0
  0
LINE
  8
PLAN
  6
CONTINUOUS
 62
    11
  5
459
 10
102.280883
 20
74.407772
 30
0.0
 11
102.21552
 21
74.838258
 31
0.0
  0
LINE
  8
PLAN
  6
CONTINUOUS
 62
    11
  5
45A
 10
102.21552
 20
74.838258
 30
0.0
 11
102.148004
 21
75.268406
 31
0.0
  0
LINE
  8
PLAN
  6
CONTINUOUS
 62
    11
  5
45B
 10
102.148004
 20
75.268406
 30
0.0
 11
102.078004
 21
75.698161
 31
0.0
  0
LINE
  8
PLAN
  6
CONTINUOUS
 62
    11
  5
45C
 10
102.078004
 20
75.698161
 30
0.0
 11
102.005186
 21
76.127473
 31
0.0
  0
LINE
  8
PLAN
  6
CONTINUOUS
 62
    11
  5
45D
 10
102.005186
 20
76.127473
 30
0.0
 11
101.92922
 21
76.556289
 31
0.0
  0
LINE
  8
PLAN
  6
CONTINUOUS
 62
    11
  5
45E
 10
101.92922
 20
76.556289
 30
0.0
 11
101.849775
 21
76.984557
 31
0.0
  0
LINE
  8
PLAN
  6
CONTINUOUS
 62
    11
  5
45F
 10
101.849775
 20
76.984557
 30
0.0
 11
101.782228
 21
77.341765
 31
0.0
  0
LINE
  8
PLAN
  6
CONTINUOUS
 62
    11
  5
460
 10
101.782228
 20
77.341765
 30
0.0
 11
101.714545
 21
77.698942
 31
0.0
  0
LINE
  8
PLAN
  6
CONTINUOUS
 62
    11
  5
461
 10
101.714545
 20
77.698942
 30
0.0
 11
101.645639
 21
78.055839
 31
0.0
  0
LINE
  8
PLAN
  6
CONTINUOUS
 62
    11
  5
462
 10
101.645639
 20
78.055839
 30
0.0
 11
101.574425
 21
78.412206
 31
0.0
  0
LINE
  8
PLAN
  6
CONTINUOUS
 62
    11
  5
463
 10
101.574425
 20
78.412206
 30
0.0
 11
101.499816
 21
78.767795
 31
0.0
  0
LINE
  8
PLAN
  6
CONTINUOUS
 62
    11
  5
464
 10
101.499816
 20
78.767795
 30
0.0
 11
101.420726
 21
79.122357
 31
0.0
  0
LINE
  8
PLAN
  6
CONTINUOUS
 62
    11
  5
465
 10
101.420726
 20
79.122357
 30
0.0
 11
101.336068
 21
79.475641
 31
0.0
  0
LINE
  8
PLAN
  6
CONTINUOUS
 62
    11
  5
466
 10
101.336068
 20
79.475641
 30
0.0
 11
101.244757
 21
79.8274
 31
0.0
  0
LINE
  8
PLAN
  6
CONTINUOUS
 62
    11
  5
467
 10
101.244757
 20
79.8274
 30
0.0
 11
101.145706
 21
80.177384
 31
0.0
  0
LINE
  8
PLAN
  6
CONTINUOUS
 62
    11
  5
468
 10
101.145706
 20
80.177384
 30
0.0
 11
101.037828
 21
80.525344
 31
0.0
  0
LINE
  8
PLAN
  6
CONTINUOUS
 62
    11
  5
469
 10
101.037828
 20
80.525344
 30
0.0
 11
100.933353
 21
80.834146
 31
0.0
  0
LINE
  8
PLAN
  6
CONTINUOUS
 62
    11
  5
46A
 10
100.933353
 20
80.834146
 30
0.0
 11
100.821865
 21
81.139873
 31
0.0
  0
LINE
  8
PLAN
  6
CONTINUOUS
 62
    11
  5
46B
 10
100.821865
 20
81.139873
 30
0.0
 11
100.703834
 21
81.442731
 31
0.0
  0
LINE
  8
PLAN
  6
CONTINUOUS
 62
    11
  5
46C
 10
100.703834
 20
81.442731
 30
0.0
 11
100.579728
 21
81.742926
 31
0.0
  0
LINE
  8
PLAN
  6
CONTINUOUS
 62
    11
  5
46D
 10
100.579728
 20
81.742926
 30
0.0
 11
100.450018
 21
82.040664
 31
0.0
  0
LINE
  8
PLAN
  6
CONTINUOUS
 62
    11
  5
46E
 10
100.450018
 20
82.040664
 30
0.0
 11
100.315173
 21
82.336151
 31
0.0
  0
LINE
  8
PLAN
  6
CONTINUOUS
 62
    11
  5
46F
 10
100.315173
 20
82.336151
 30
0.0
 11
100.175662
 21
82.629592
 31
0.0
  0
LINE
  8
PLAN
  6
CONTINUOUS
 62
    11
  5
470
 10
100.175662
 20
82.629592
 30
0.0
 11
100.031955
 21
82.921194
 31
0.0
  0
LINE
  8
PLAN
  6
CONTINUOUS
 62
    11
  5
471
 10
100.031955
 20
82.921194
 30
0.0
 11
99.884521
 21
83.211161
 31
0.0
  0
LINE
  8
PLAN
  6
CONTINUOUS
 62
    11
  5
472
 10
99.884521
 20
83.211161
 30
0.0
 11
99.733829
 21
83.499701
 31
0.0
  0
LINE
  8
PLAN
  6
CONTINUOUS
 62
    11
  5
473
 10
99.733829
 20
83.499701
 30
0.0
 11
99.607456
 21
83.732447
 31
0.0
  0
LINE
  8
PLAN
  6
CONTINUOUS
 62
    11
  5
474
 10
99.607456
 20
83.732447
 30
0.0
 11
99.476309
 21
83.962092
 31
0.0
  0
LINE
  8
PLAN
  6
CONTINUOUS
 62
    11
  5
475
 10
99.476309
 20
83.962092
 30
0.0
 11
99.340723
 21
84.188853
 31
0.0
  0
LINE
  8
PLAN
  6
CONTINUOUS
 62
    11
  5
476
 10
99.340723
 20
84.188853
 30
0.0
 11
99.201034
 21
84.412949
 31
0.0
  0
LINE
  8
PLAN
  6
CONTINUOUS
 62
    11
  5
477
 10
99.201034
 20
84.412949
 30
0.0
 11
99.057578
 21
84.634598
 31
0.0
  0
LINE
  8
PLAN
  6
CONTINUOUS
 62
    11
  5
478
 10
99.057578
 20
84.634598
 30
0.0
 11
98.91069
 21
84.854018
 31
0.0
  0
LINE
  8
PLAN
  6
CONTINUOUS
 62
    11
  5
479
 10
98.91069
 20
84.854018
 30
0.0
 11
98.760707
 21
85.071426
 31
0.0
  0
LINE
  8
PLAN
  6
CONTINUOUS
 62
    11
  5
47A
 10
98.760707
 20
85.071426
 30
0.0
 11
98.607964
 21
85.287042
 31
0.0
  0
LINE
  8
PLAN
  6
CONTINUOUS
 62
    11
  5
47B
 10
98.607964
 20
85.287042
 30
0.0
 11
98.452797
 21
85.501083
 31
0.0
  0
LINE
  8
PLAN
  6
CONTINUOUS
 62
    11
  5
47C
 10
98.452797
 20
85.501083
 30
0.0
 11
98.295541
 21
85.713768
 31
0.0
  0
LINE
  8
PLAN
  6
CONTINUOUS
 62
    11
  5
47D
 10
98.295541
 20
85.713768
 30
0.0
 11
98.09261
 21
85.984254
 31
0.0
  0
LINE
  8
PLAN
  6
CONTINUOUS
 62
    11
  5
47E
 10
98.09261
 20
85.984254
 30
0.0
 11
97.887962
 21
86.253317
 31
0.0
  0
LINE
  8
PLAN
  6
CONTINUOUS
 62
    11
  5
47F
 10
97.887962
 20
86.253317
 30
0.0
 11
97.681201
 21
86.520632
 31
0.0
  0
LINE
  8
PLAN
  6
CONTINUOUS
 62
    11
  5
480
 10
97.681201
 20
86.520632
 30
0.0
 11
97.471936
 21
86.785874
 31
0.0
  0
LINE
  8
PLAN
  6
CONTINUOUS
 62
    11
  5
481
 10
97.471936
 20
86.785874
 30
0.0
 11
97.259773
 21
87.048717
 31
0.0
  0
LINE
  8
PLAN
  6
CONTINUOUS
 62
    11
  5
482
 10
97.259773
 20
87.048717
 30
0.0
 11
97.044319
 21
87.308835
 31
0.0
  0
LINE
  8
PLAN
  6
CONTINUOUS
 62
    11
  5
483
 10
97.044319
 20
87.308835
 30
0.0
 11
96.82518
 21
87.565904
 31
0.0
  0
LINE
  8
PLAN
  6
CONTINUOUS
 62
    11
  5
484
 10
96.82518
 20
87.565904
 30
0.0
 11
96.601964
 21
87.819597
 31
0.0
  0
LINE
  8
PLAN
  6
CONTINUOUS
 62
    11
  5
485
 10
96.601964
 20
87.819597
 30
0.0
 11
96.374277
 21
88.069588
 31
0.0
  0
LINE
  8
PLAN
  6
CONTINUOUS
 62
    11
  5
486
 10
96.374277
 20
88.069588
 30
0.0
 11
96.141726
 21
88.315554
 31
0.0
  0
LINE
  8
PLAN
  6
CONTINUOUS
 62
    11
  5
487
 10
96.141726
 20
88.315554
 30
0.0
 11
95.886791
 21
88.576664
 31
0.0
  0
LINE
  8
PLAN
  6
CONTINUOUS
 62
    11
  5
488
 10
95.886791
 20
88.576664
 30
0.0
 11
95.62871
 21
88.834282
 31
0.0
  0
LINE
  8
PLAN
  6
CONTINUOUS
 62
    11
  5
489
 10
95.62871
 20
88.834282
 30
0.0
 11
95.367362
 21
89.088276
 31
0.0
  0
LINE
  8
PLAN
  6
CONTINUOUS
 62
    11
  5
48A
 10
95.367362
 20
89.088276
 30
0.0
 11
95.102626
 21
89.338509
 31
0.0
  0
LINE
  8
PLAN
  6
CONTINUOUS
 62
    11
  5
48B
 10
95.102626
 20
89.338509
 30
0.0
 11
94.834381
 21
89.584849
 31
0.0
  0
LINE
  8
PLAN
  6
CONTINUOUS
 62
    11
  5
48C
 10
94.834381
 20
89.584849
 30
0.0
 11
94.562506
 21
89.82716
 31
0.0
  0
LINE
  8
PLAN
  6
CONTINUOUS
 62
    11
  5
48D
 10
94.562506
 20
89.82716
 30
0.0
 11
94.28688
 21
90.065308
 31
0.0
  0
LINE
  8
PLAN
  6
CONTINUOUS
 62
    11
  5
48E
 10
94.28688
 20
90.065308
 30
0.0
 11
94.007383
 21
90.29916
 31
0.0
  0
LINE
  8
PLAN
  6
CONTINUOUS
 62
    11
  5
48F
 10
94.007383
 20
90.29916
 30
0.0
 11
93.723892
 21
90.52858
 31
0.0
  0
LINE
  8
PLAN
  6
CONTINUOUS
 62
    11
  5
490
 10
93.723892
 20
90.52858
 30
0.0
 11
93.436287
 21
90.753435
 31
0.0
  0
LINE
  8
PLAN
  6
CONTINUOUS
 62
    11
  5
491
 10
93.436287
 20
90.753435
 30
0.0
 11
93.168474
 21
90.955603
 31
0.0
  0
LINE
  8
PLAN
  6
CONTINUOUS
 62
    11
  5
492
 10
93.168474
 20
90.955603
 30
0.0
 11
92.897606
 21
91.153002
 31
0.0
  0
LINE
  8
PLAN
  6
CONTINUOUS
 62
    11
  5
493
 10
92.897606
 20
91.153002
 30
0.0
 11
92.62367
 21
91.345609
 31
0.0
  0
LINE
  8
PLAN
  6
CONTINUOUS
 62
    11
  5
494
 10
92.62367
 20
91.345609
 30
0.0
 11
92.346649
 21
91.533401
 31
0.0
  0
LINE
  8
PLAN
  6
CONTINUOUS
 62
    11
  5
495
 10
92.346649
 20
91.533401
 30
0.0
 11
92.066531
 21
91.716355
 31
0.0
  0
LINE
  8
PLAN
  6
CONTINUOUS
 62
    11
  5
496
 10
92.066531
 20
91.716355
 30
0.0
 11
91.783298
 21
91.894447
 31
0.0
  0
LINE
  8
PLAN
  6
CONTINUOUS
 62
    11
  5
497
 10
91.783298
 20
91.894447
 30
0.0
 11
91.496938
 21
92.067655
 31
0.0
  0
LINE
  8
PLAN
  6
CONTINUOUS
 62
    11
  5
498
 10
91.496938
 20
92.067655
 30
0.0
 11
91.207435
 21
92.235955
 31
0.0
  0
LINE
  8
PLAN
  6
CONTINUOUS
 62
    11
  5
499
 10
91.207435
 20
92.235955
 30
0.0
 11
90.914774
 21
92.399325
 31
0.0
  0
LINE
  8
PLAN
  6
CONTINUOUS
 62
    11
  5
49A
 10
90.914774
 20
92.399325
 30
0.0
 11
90.618941
 21
92.557742
 31
0.0
  0
LINE
  8
PLAN
  6
CONTINUOUS
 62
    11
  5
49B
 10
90.618941
 20
92.557742
 30
0.0
 11
90.382645
 21
92.674146
 31
0.0
  0
LINE
  8
PLAN
  6
CONTINUOUS
 62
    11
  5
49C
 10
90.382645
 20
92.674146
 30
0.0
 11
90.142107
 21
92.779685
 31
0.0
  0
LINE
  8
PLAN
  6
CONTINUOUS
 62
    11
  5
49D
 10
90.142107
 20
92.779685
 30
0.0
 11
89.898235
 21
92.876686
 31
0.0
  0
LINE
  8
PLAN
  6
CONTINUOUS
 62
    11
  5
49E
 10
89.898235
 20
92.876686
 30
0.0
 11
89.65194
 21
92.967478
 31
0.0
  0
LINE
  8
PLAN
  6
CONTINUOUS
 62
    11
  5
49F
 10
89.65194
 20
92.967478
 30
0.0
 11
89.404129
 21
93.05439
 31
0.0
  0
LINE
  8
PLAN
  6
CONTINUOUS
 62
    11
  5
4A0
 10
89.404129
 20
93.05439
 30
0.0
 11
89.155712
 21
93.139749
 31
0.0
  0
LINE
  8
PLAN
  6
CONTINUOUS
 62
    11
  5
4A1
 10
89.155712
 20
93.139749
 30
0.0
 11
88.907599
 21
93.225885
 31
0.0
  0
LINE
  8
PLAN
  6
CONTINUOUS
 62
    11
  5
4A2
 10
88.907599
 20
93.225885
 30
0.0
 11
88.660697
 21
93.315125
 31
0.0
  0
LINE
  8
PLAN
  6
CONTINUOUS
 62
    11
  5
4A3
 10
88.660697
 20
93.315125
 30
0.0
 11
88.415917
 21
93.409798
 31
0.0
  0
LINE
  8
PLAN
  6
CONTINUOUS
 62
    11
  5
4A4
 10
88.415917
 20
93.409798
 30
0.0
 11
88.174166
 21
93.512232
 31
0.0
  0
LINE
  8
PLAN
  6
CONTINUOUS
 62
    11
  5
4A5
 10
88.174166
 20
93.512232
 30
0.0
 11
88.026229
 21
93.580859
 31
0.0
  0
LINE
  8
PLAN
  6
CONTINUOUS
 62
    11
  5
4A6
 10
88.026229
 20
93.580859
 30
0.0
 11
87.88032
 21
93.653229
 31
0.0
  0
LINE
  8
PLAN
  6
CONTINUOUS
 62
    11
  5
4A7
 10
87.88032
 20
93.653229
 30
0.0
 11
87.736082
 21
93.728682
 31
0.0
  0
LINE
  8
PLAN
  6
CONTINUOUS
 62
    11
  5
4A8
 10
87.736082
 20
93.728682
 30
0.0
 11
87.593155
 21
93.806556
 31
0.0
  0
LINE
  8
PLAN
  6
CONTINUOUS
 62
    11
  5
4A9
 10
87.593155
 20
93.806556
 30
0.0
 11
87.451183
 21
93.886191
 31
0.0
  0
LINE
  8
PLAN
  6
CONTINUOUS
 62
    11
  5
4AA
 10
87.451183
 20
93.886191
 30
0.0
 11
87.309807
 21
93.966927
 31
0.0
  0
LINE
  8
PLAN
  6
CONTINUOUS
 62
    11
  5
4AB
 10
87.309807
 20
93.966927
 30
0.0
 11
87.16867
 21
94.048104
 31
0.0
  0
LINE
  8
PLAN
  6
CONTINUOUS
 62
    11
  5
4AC
 10
87.16867
 20
94.048104
 30
0.0
 11
87.027414
 21
94.12906
 31
0.0
  0
LINE
  8
PLAN
  6
CONTINUOUS
 62
    11
  5
4AD
 10
87.027414
 20
94.12906
 30
0.0
 11
86.88568
 21
94.209136
 31
0.0
  0
LINE
  8
PLAN
  6
CONTINUOUS
 62
    11
  5
4AE
 10
86.88568
 20
94.209136
 30
0.0
 11
86.743112
 21
94.28767
 31
0.0
  0
LINE
  8
PLAN
  6
CONTINUOUS
 62
    11
  5
4AF
 10
86.743112
 20
94.28767
 30
0.0
 11
86.600256
 21
94.365674
 31
0.0
  0
LINE
  8
PLAN
  6
CONTINUOUS
 62
    11
  5
4B0
 10
86.600256
 20
94.365674
 30
0.0
 11
86.457787
 21
94.444393
 31
0.0
  0
LINE
  8
PLAN
  6
CONTINUOUS
 62
    11
  5
4B1
 10
86.457787
 20
94.444393
 30
0.0
 11
86.31554
 21
94.523522
 31
0.0
  0
LINE
  8
PLAN
  6
CONTINUOUS
 62
    11
  5
4B2
 10
86.31554
 20
94.523522
 30
0.0
 11
86.173349
 21
94.602752
 31
0.0
  0
LINE
  8
PLAN
  6
CONTINUOUS
 62
    11
  5
4B3
 10
86.173349
 20
94.602752
 30
0.0
 11
86.031046
 21
94.681778
 31
0.0
  0
LINE
  8
PLAN
  6
CONTINUOUS
 62
    11
  5
4B4
 10
86.031046
 20
94.681778
 30
0.0
 11
85.888467
 21
94.760293
 31
0.0
  0
LINE
  8
PLAN
  6
CONTINUOUS
 62
    11
  5
4B5
 10
85.888467
 20
94.760293
 30
0.0
 11
85.745445
 21
94.83799
 31
0.0
  0
LINE
  8
PLAN
  6
CONTINUOUS
 62
    11
  5
4B6
 10
85.745445
 20
94.83799
 30
0.0
 11
85.601813
 21
94.914563
 31
0.0
  0
LINE
  8
PLAN
  6
CONTINUOUS
 62
    11
  5
4B7
 10
85.601813
 20
94.914563
 30
0.0
 11
85.457406
 21
94.989704
 31
0.0
  0
LINE
  8
PLAN
  6
CONTINUOUS
 62
    11
  5
4B8
 10
85.457406
 20
94.989704
 30
0.0
 11
85.312057
 21
95.063108
 31
0.0
  0
LINE
  8
PLAN
  6
CONTINUOUS
 62
    11
  5
4B9
 10
85.312057
 20
95.063108
 30
0.0
 11
85.252438
 21
95.090813
 31
0.0
  0
LINE
  8
PLAN
  6
CONTINUOUS
 62
    11
  5
4BA
 10
85.252438
 20
95.090813
 30
0.0
 11
85.191759
 21
95.115803
 31
0.0
  0
LINE
  8
PLAN
  6
CONTINUOUS
 62
    11
  5
4BB
 10
85.191759
 20
95.115803
 30
0.0
 11
85.130292
 21
95.138775
 31
0.0
  0
LINE
  8
PLAN
  6
CONTINUOUS
 62
    11
  5
4BC
 10
85.130292
 20
95.138775
 30
0.0
 11
85.06831
 21
95.160428
 31
0.0
  0
LINE
  8
PLAN
  6
CONTINUOUS
 62
    11
  5
4BD
 10
85.06831
 20
95.160428
 30
0.0
 11
85.006086
 21
95.18146
 31
0.0
  0
LINE
  8
PLAN
  6
CONTINUOUS
 62
    11
  5
4BE
 10
85.006086
 20
95.18146
 30
0.0
 11
84.943891
 21
95.202569
 31
0.0
  0
LINE
  8
PLAN
  6
CONTINUOUS
 62
    11
  5
4BF
 10
84.943891
 20
95.202569
 30
0.0
 11
84.881999
 21
95.224452
 31
0.0
  0
LINE
  8
PLAN
  6
CONTINUOUS
 62
    11
  5
4C0
 10
84.881999
 20
95.224452
 30
0.0
 11
84.820682
 21
95.247808
 31
0.0
  0
LINE
  8
PLAN
  6
CONTINUOUS
 62
    11
  5
4C1
 10
84.820682
 20
95.247808
 30
0.0
 11
84.760213
 21
95.273335
 31
0.0
  0
LINE
  8
PLAN
  6
CONTINUOUS
 62
    11
  5
4C2
 10
84.760213
 20
95.273335
 30
0.0
 11
84.700864
 21
95.301731
 31
0.0
  0
LINE
  8
PLAN
  6
CONTINUOUS
 62
    11
  5
4C3
 10
84.700864
 20
95.301731
 30
0.0
 11
84.647377
 21
95.233933
 31
0.0
  0
LINE
  8
PLAN
  6
CONTINUOUS
 62
    11
  5
4C4
 10
84.647377
 20
95.233933
 30
0.0
 11
84.590711
 21
95.168495
 31
0.0
  0
LINE
  8
PLAN
  6
CONTINUOUS
 62
    11
  5
4C5
 10
84.590711
 20
95.168495
 30
0.0
 11
84.532228
 21
95.104404
 31
0.0
  0
LINE
  8
PLAN
  6
CONTINUOUS
 62
    11
  5
4C6
 10
84.532228
 20
95.104404
 30
0.0
 11
84.473292
 21
95.040651
 31
0.0
  0
LINE
  8
PLAN
  6
CONTINUOUS
 62
    11
  5
4C7
 10
84.473292
 20
95.040651
 30
0.0
 11
84.415263
 21
94.976223
 31
0.0
  0
LINE
  8
PLAN
  6
CONTINUOUS
 62
    11
  5
4C8
 10
84.415263
 20
94.976223
 30
0.0
 11
84.359506
 21
94.910111
 31
0.0
  0
LINE
  8
PLAN
  6
CONTINUOUS
 62
    11
  5
4C9
 10
84.359506
 20
94.910111
 30
0.0
 11
84.307381
 21
94.841302
 31
0.0
  0
LINE
  8
PLAN
  6
CONTINUOUS
 62
    11
  5
4CA
 10
84.307381
 20
94.841302
 30
0.0
 11
84.260252
 21
94.768785
 31
0.0
  0
LINE
  8
PLAN
  6
CONTINUOUS
 62
    11
  5
4CB
 10
84.260252
 20
94.768785
 30
0.0
 11
84.219481
 21
94.69155
 31
0.0
  0
LINE
  8
PLAN
  6
CONTINUOUS
 62
    11
  5
4CC
 10
84.219481
 20
94.69155
 30
0.0
 11
84.186429
 21
94.608585
 31
0.0
  0
LINE
  8
PLAN
  6
CONTINUOUS
 62
    11
  5
4CD
 10
84.186429
 20
94.608585
 30
0.0
 11
84.103814
 21
94.34991
 31
0.0
  0
LINE
  8
PLAN
  6
CONTINUOUS
 62
    11
  5
4CE
 10
84.103814
 20
94.34991
 30
0.0
 11
84.027654
 21
94.089776
 31
0.0
  0
LINE
  8
PLAN
  6
CONTINUOUS
 62
    11
  5
4CF
 10
84.027654
 20
94.089776
 30
0.0
 11
83.95744
 21
93.828296
 31
0.0
  0
LINE
  8
PLAN
  6
CONTINUOUS
 62
    11
  5
4D0
 10
83.95744
 20
93.828296
 30
0.0
 11
83.892664
 21
93.565587
 31
0.0
  0
LINE
  8
PLAN
  6
CONTINUOUS
 62
    11
  5
4D1
 10
83.892664
 20
93.565587
 30
0.0
 11
83.832817
 21
93.301763
 31
0.0
  0
LINE
  8
PLAN
  6
CONTINUOUS
 62
    11
  5
4D2
 10
83.832817
 20
93.301763
 30
0.0
 11
83.77739
 21
93.036939
 31
0.0
  0
LINE
  8
PLAN
  6
CONTINUOUS
 62
    11
  5
4D3
 10
83.77739
 20
93.036939
 30
0.0
 11
83.725873
 21
92.771231
 31
0.0
  0
LINE
  8
PLAN
  6
CONTINUOUS
 62
    11
  5
4D4
 10
83.725873
 20
92.771231
 30
0.0
 11
83.67776
 21
92.504754
 31
0.0
  0
LINE
  8
PLAN
  6
CONTINUOUS
 62
    11
  5
4D5
 10
83.67776
 20
92.504754
 30
0.0
 11
83.632539
 21
92.237622
 31
0.0
  0
LINE
  8
PLAN
  6
CONTINUOUS
 62
    11
  5
4D6
 10
83.632539
 20
92.237622
 30
0.0
 11
83.589703
 21
91.969951
 31
0.0
  0
LINE
  8
PLAN
  6
CONTINUOUS
 62
    11
  5
4D7
 10
83.589703
 20
91.969951
 30
0.0
 11
83.536426
 21
91.59946
 31
0.0
  0
LINE
  8
PLAN
  6
CONTINUOUS
 62
    11
  5
4D8
 10
83.536426
 20
91.59946
 30
0.0
 11
83.490917
 21
91.228142
 31
0.0
  0
LINE
  8
PLAN
  6
CONTINUOUS
 62
    11
  5
4D9
 10
83.490917
 20
91.228142
 30
0.0
 11
83.451406
 21
90.856187
 31
0.0
  0
LINE
  8
PLAN
  6
CONTINUOUS
 62
    11
  5
4DA
 10
83.451406
 20
90.856187
 30
0.0
 11
83.416123
 21
90.483781
 31
0.0
  0
LINE
  8
PLAN
  6
CONTINUOUS
 62
    11
  5
4DB
 10
83.416123
 20
90.483781
 30
0.0
 11
83.383296
 21
90.111115
 31
0.0
  0
LINE
  8
PLAN
  6
CONTINUOUS
 62
    11
  5
4DC
 10
83.383296
 20
90.111115
 30
0.0
 11
83.351158
 21
89.738375
 31
0.0
  0
LINE
  8
PLAN
  6
CONTINUOUS
 62
    11
  5
4DD
 10
83.351158
 20
89.738375
 30
0.0
 11
83.317936
 21
89.365751
 31
0.0
  0
LINE
  8
PLAN
  6
CONTINUOUS
 62
    11
  5
4DE
 10
83.317936
 20
89.365751
 30
0.0
 11
83.28186
 21
88.99343
 31
0.0
  0
LINE
  8
PLAN
  6
CONTINUOUS
 62
    11
  5
4DF
 10
83.28186
 20
88.99343
 30
0.0
 11
83.241162
 21
88.621601
 31
0.0
  0
LINE
  8
PLAN
  6
CONTINUOUS
 62
    11
  5
4E0
 10
83.241162
 20
88.621601
 30
0.0
 11
83.194069
 21
88.250452
 31
0.0
  0
LINE
  8
PLAN
  6
CONTINUOUS
 62
    11
  5
4E1
 10
83.194069
 20
88.250452
 30
0.0
 11
83.152742
 21
87.957214
 31
0.0
  0
LINE
  8
PLAN
  6
CONTINUOUS
 62
    11
  5
4E2
 10
83.152742
 20
87.957214
 30
0.0
 11
83.109269
 21
87.664356
 31
0.0
  0
LINE
  8
PLAN
  6
CONTINUOUS
 62
    11
  5
4E3
 10
83.109269
 20
87.664356
 30
0.0
 11
83.063609
 21
87.371884
 31
0.0
  0
LINE
  8
PLAN
  6
CONTINUOUS
 62
    11
  5
4E4
 10
83.063609
 20
87.371884
 30
0.0
 11
83.015721
 21
87.079805
 31
0.0
  0
LINE
  8
PLAN
  6
CONTINUOUS
 62
    11
  5
4E5
 10
83.015721
 20
87.079805
 30
0.0
 11
82.965563
 21
86.788127
 31
0.0
  0
LINE
  8
PLAN
  6
CONTINUOUS
 62
    11
  5
4E6
 10
82.965563
 20
86.788127
 30
0.0
 11
82.913095
 21
86.496858
 31
0.0
  0
LINE
  8
PLAN
  6
CONTINUOUS
 62
    11
  5
4E7
 10
82.913095
 20
86.496858
 30
0.0
 11
82.858276
 21
86.206003
 31
0.0
  0
LINE
  8
PLAN
  6
CONTINUOUS
 62
    11
  5
4E8
 10
82.858276
 20
86.206003
 30
0.0
 11
82.801063
 21
85.915572
 31
0.0
  0
LINE
  8
PLAN
  6
CONTINUOUS
 62
    11
  5
4E9
 10
82.801063
 20
85.915572
 30
0.0
 11
82.741417
 21
85.62557
 31
0.0
  0
LINE
  8
PLAN
  6
CONTINUOUS
 62
    11
  5
4EA
 10
82.741417
 20
85.62557
 30
0.0
 11
82.679295
 21
85.336006
 31
0.0
  0
LINE
  8
PLAN
  6
CONTINUOUS
 62
    11
  5
4EB
 10
82.679295
 20
85.336006
 30
0.0
 11
82.606503
 21
85.008261
 31
0.0
  0
LINE
  8
PLAN
  6
CONTINUOUS
 62
    11
  5
4EC
 10
82.606503
 20
85.008261
 30
0.0
 11
82.531707
 21
84.681032
 31
0.0
  0
LINE
  8
PLAN
  6
CONTINUOUS
 62
    11
  5
4ED
 10
82.531707
 20
84.681032
 30
0.0
 11
82.454763
 21
84.354355
 31
0.0
  0
LINE
  8
PLAN
  6
CONTINUOUS
 62
    11
  5
4EE
 10
82.454763
 20
84.354355
 30
0.0
 11
82.375528
 21
84.028267
 31
0.0
  0
LINE
  8
PLAN
  6
CONTINUOUS
 62
    11
  5
4EF
 10
82.375528
 20
84.028267
 30
0.0
 11
82.293858
 21
83.702805
 31
0.0
  0
LINE
  8
PLAN
  6
CONTINUOUS
 62
    11
  5
4F0
 10
82.293858
 20
83.702805
 30
0.0
 11
82.209608
 21
83.378006
 31
0.0
  0
LINE
  8
PLAN
  6
CONTINUOUS
 62
    11
  5
4F1
 10
82.209608
 20
83.378006
 30
0.0
 11
82.122636
 21
83.053907
 31
0.0
  0
LINE
  8
PLAN
  6
CONTINUOUS
 62
    11
  5
4F2
 10
82.122636
 20
83.053907
 30
0.0
 11
82.032797
 21
82.730544
 31
0.0
  0
LINE
  8
PLAN
  6
CONTINUOUS
 62
    11
  5
4F3
 10
82.032797
 20
82.730544
 30
0.0
 11
81.939948
 21
82.407955
 31
0.0
  0
LINE
  8
PLAN
  6
CONTINUOUS
 62
    11
  5
4F4
 10
81.939948
 20
82.407955
 30
0.0
 11
81.843946
 21
82.086177
 31
0.0
  0
LINE
  8
PLAN
  6
CONTINUOUS
 62
    11
  5
4F5
 10
81.843946
 20
82.086177
 30
0.0
 11
81.720031
 21
81.688093
 31
0.0
  0
LINE
  8
PLAN
  6
CONTINUOUS
 62
    11
  5
4F6
 10
81.720031
 20
81.688093
 30
0.0
 11
81.591308
 21
81.291654
 31
0.0
  0
LINE
  8
PLAN
  6
CONTINUOUS
 62
    11
  5
4F7
 10
81.591308
 20
81.291654
 30
0.0
 11
81.458657
 21
80.89656
 31
0.0
  0
LINE
  8
PLAN
  6
CONTINUOUS
 62
    11
  5
4F8
 10
81.458657
 20
80.89656
 30
0.0
 11
81.322961
 21
80.502508
 31
0.0
  0
LINE
  8
PLAN
  6
CONTINUOUS
 62
    11
  5
4F9
 10
81.322961
 20
80.502508
 30
0.0
 11
81.185099
 21
80.109198
 31
0.0
  0
LINE
  8
PLAN
  6
CONTINUOUS
 62
    11
  5
4FA
 10
81.185099
 20
80.109198
 30
0.0
 11
81.045954
 21
79.716327
 31
0.0
  0
LINE
  8
PLAN
  6
CONTINUOUS
 62
    11
  5
4FB
 10
81.045954
 20
79.716327
 30
0.0
 11
80.906407
 21
79.323593
 31
0.0
  0
LINE
  8
PLAN
  6
CONTINUOUS
 62
    11
  5
4FC
 10
80.906407
 20
79.323593
 30
0.0
 11
80.767338
 21
78.930696
 31
0.0
  0
LINE
  8
PLAN
  6
CONTINUOUS
 62
    11
  5
4FD
 10
80.767338
 20
78.930696
 30
0.0
 11
80.62963
 21
78.537334
 31
0.0
  0
LINE
  8
PLAN
  6
CONTINUOUS
 62
    11
  5
4FE
 10
80.62963
 20
78.537334
 30
0.0
 11
80.494162
 21
78.143203
 31
0.0
  0
LINE
  8
PLAN
  6
CONTINUOUS
 62
    11
  5
4FF
 10
80.494162
 20
78.143203
 30
0.0
 11
80.353452
 21
77.737413
 31
0.0
  0
LINE
  8
PLAN
  6
CONTINUOUS
 62
    11
  5
500
 10
80.353452
 20
77.737413
 30
0.0
 11
80.208789
 21
77.332954
 31
0.0
  0
LINE
  8
PLAN
  6
CONTINUOUS
 62
    11
  5
501
 10
80.208789
 20
77.332954
 30
0.0
 11
80.061947
 21
76.929231
 31
0.0
  0
LINE
  8
PLAN
  6
CONTINUOUS
 62
    11
  5
502
 10
80.061947
 20
76.929231
 30
0.0
 11
79.9147
 21
76.525644
 31
0.0
  0
LINE
  8
PLAN
  6
CONTINUOUS
 62
    11
  5
503
 10
79.9147
 20
76.525644
 30
0.0
 11
79.76882
 21
76.121596
 31
0.0
  0
LINE
  8
PLAN
  6
CONTINUOUS
 62
    11
  5
504
 10
79.76882
 20
76.121596
 30
0.0
 11
79.626081
 21
75.716489
 31
0.0
  0
LINE
  8
PLAN
  6
CONTINUOUS
 62
    11
  5
505
 10
79.626081
 20
75.716489
 30
0.0
 11
79.488256
 21
75.309726
 31
0.0
  0
LINE
  8
PLAN
  6
CONTINUOUS
 62
    11
  5
506
 10
79.488256
 20
75.309726
 30
0.0
 11
79.357118
 21
74.900707
 31
0.0
  0
LINE
  8
PLAN
  6
CONTINUOUS
 62
    11
  5
507
 10
79.357118
 20
74.900707
 30
0.0
 11
79.234441
 21
74.488836
 31
0.0
  0
LINE
  8
PLAN
  6
CONTINUOUS
 62
    11
  5
508
 10
79.234441
 20
74.488836
 30
0.0
 11
79.121998
 21
74.073515
 31
0.0
  0
LINE
  8
PLAN
  6
CONTINUOUS
 62
    11
  5
509
 10
79.121998
 20
74.073515
 30
0.0
 11
79.021984
 21
73.659975
 31
0.0
  0
LINE
  8
PLAN
  6
CONTINUOUS
 62
    11
  5
50A
 10
79.021984
 20
73.659975
 30
0.0
 11
78.93197
 21
73.244668
 31
0.0
  0
LINE
  8
PLAN
  6
CONTINUOUS
 62
    11
  5
50B
 10
78.93197
 20
73.244668
 30
0.0
 11
78.850387
 21
72.827873
 31
0.0
  0
LINE
  8
PLAN
  6
CONTINUOUS
 62
    11
  5
50C
 10
78.850387
 20
72.827873
 30
0.0
 11
78.775662
 21
72.409866
 31
0.0
  0
LINE
  8
PLAN
  6
CONTINUOUS
 62
    11
  5
50D
 10
78.775662
 20
72.409866
 30
0.0
 11
78.706227
 21
71.990925
 31
0.0
  0
LINE
  8
PLAN
  6
CONTINUOUS
 62
    11
  5
50E
 10
78.706227
 20
71.990925
 30
0.0
 11
78.640509
 21
71.571328
 31
0.0
  0
LINE
  8
PLAN
  6
CONTINUOUS
 62
    11
  5
50F
 10
78.640509
 20
71.571328
 30
0.0
 11
78.576939
 21
71.151351
 31
0.0
  0
LINE
  8
PLAN
  6
CONTINUOUS
 62
    11
  5
510
 10
78.576939
 20
71.151351
 30
0.0
 11
78.513946
 21
70.731272
 31
0.0
  0
LINE
  8
PLAN
  6
CONTINUOUS
 62
    11
  5
511
 10
78.513946
 20
70.731272
 30
0.0
 11
78.449959
 21
70.311368
 31
0.0
  0
LINE
  8
PLAN
  6
CONTINUOUS
 62
    11
  5
512
 10
78.449959
 20
70.311368
 30
0.0
 11
78.383408
 21
69.891918
 31
0.0
  0
LINE
  8
PLAN
  6
CONTINUOUS
 62
    11
  5
513
 10
78.383408
 20
69.891918
 30
0.0
 11
78.293511
 21
69.345772
 31
0.0
  0
LINE
  8
PLAN
  6
CONTINUOUS
 62
    11
  5
514
 10
78.293511
 20
69.345772
 30
0.0
 11
78.202606
 21
68.799779
 31
0.0
  0
LINE
  8
PLAN
  6
CONTINUOUS
 62
    11
  5
515
 10
78.202606
 20
68.799779
 30
0.0
 11
78.111599
 21
68.253803
 31
0.0
  0
LINE
  8
PLAN
  6
CONTINUOUS
 62
    11
  5
516
 10
78.111599
 20
68.253803
 30
0.0
 11
78.021396
 21
67.707703
 31
0.0
  0
LINE
  8
PLAN
  6
CONTINUOUS
 62
    11
  5
517
 10
78.021396
 20
67.707703
 30
0.0
 11
77.9329
 21
67.161343
 31
0.0
  0
LINE
  8
PLAN
  6
CONTINUOUS
 62
    11
  5
518
 10
77.9329
 20
67.161343
 30
0.0
 11
77.847017
 21
66.614584
 31
0.0
  0
LINE
  8
PLAN
  6
CONTINUOUS
 62
    11
  5
519
 10
77.847017
 20
66.614584
 30
0.0
 11
77.764652
 21
66.067287
 31
0.0
  0
LINE
  8
PLAN
  6
CONTINUOUS
 62
    11
  5
51A
 10
77.764652
 20
66.067287
 30
0.0
 11
77.686711
 21
65.519314
 31
0.0
  0
LINE
  8
PLAN
  6
CONTINUOUS
 62
    11
  5
51B
 10
77.686711
 20
65.519314
 30
0.0
 11
77.614098
 21
64.970528
 31
0.0
  0
LINE
  8
PLAN
  6
CONTINUOUS
 62
    11
  5
51C
 10
77.614098
 20
64.970528
 30
0.0
 11
77.547718
 21
64.42079
 31
0.0
  0
LINE
  8
PLAN
  6
CONTINUOUS
 62
    11
  5
51D
 10
77.547718
 20
64.42079
 30
0.0
 11
77.49232
 21
63.919016
 31
0.0
  0
LINE
  8
PLAN
  6
CONTINUOUS
 62
    11
  5
51E
 10
77.49232
 20
63.919016
 30
0.0
 11
77.440953
 21
63.416949
 31
0.0
  0
LINE
  8
PLAN
  6
CONTINUOUS
 62
    11
  5
51F
 10
77.440953
 20
63.416949
 30
0.0
 11
77.393673
 21
62.914584
 31
0.0
  0
LINE
  8
PLAN
  6
CONTINUOUS
 62
    11
  5
520
 10
77.393673
 20
62.914584
 30
0.0
 11
77.350534
 21
62.411918
 31
0.0
  0
LINE
  8
PLAN
  6
CONTINUOUS
 62
    11
  5
521
 10
77.350534
 20
62.411918
 30
0.0
 11
77.31159
 21
61.908948
 31
0.0
  0
LINE
  8
PLAN
  6
CONTINUOUS
 62
    11
  5
522
 10
77.31159
 20
61.908948
 30
0.0
 11
77.276896
 21
61.405668
 31
0.0
  0
LINE
  8
PLAN
  6
CONTINUOUS
 62
    11
  5
523
 10
77.276896
 20
61.405668
 30
0.0
 11
77.246505
 21
60.902074
 31
0.0
  0
LINE
  8
PLAN
  6
CONTINUOUS
 62
    11
  5
524
 10
77.246505
 20
60.902074
 30
0.0
 11
77.220473
 21
60.398164
 31
0.0
  0
LINE
  8
PLAN
  6
CONTINUOUS
 62
    11
  5
525
 10
77.220473
 20
60.398164
 30
0.0
 11
77.198853
 21
59.893933
 31
0.0
  0
LINE
  8
PLAN
  6
CONTINUOUS
 62
    11
  5
526
 10
77.198853
 20
59.893933
 30
0.0
 11
77.1817
 21
59.389377
 31
0.0
  0
LINE
  8
PLAN
  6
CONTINUOUS
 62
    11
  5
527
 10
77.1817
 20
59.389377
 30
0.0
 11
77.169274
 21
58.826437
 31
0.0
  0
LINE
  8
PLAN
  6
CONTINUOUS
 62
    11
  5
528
 10
77.169274
 20
58.826437
 30
0.0
 11
77.164339
 21
58.263565
 31
0.0
  0
LINE
  8
PLAN
  6
CONTINUOUS
 62
    11
  5
529
 10
77.164339
 20
58.263565
 30
0.0
 11
77.165551
 21
57.70075
 31
0.0
  0
LINE
  8
PLAN
  6
CONTINUOUS
 62
    11
  5
52A
 10
77.165551
 20
57.70075
 30
0.0
 11
77.171523
 21
57.141659
 31
0.0
  0
LINE
  8
PLAN
  6
CONTINUOUS
 62
    11
  5
52B
 10
77.171624
 20
57.134297
 30
0.0
 11
77.181026
 21
56.575237
 31
0.0
  0
LINE
  8
PLAN
  6
CONTINUOUS
 62
    11
  5
52C
 10
77.181026
 20
56.575237
 30
0.0
 11
77.192597
 21
56.012516
 31
0.0
  0
LINE
  8
PLAN
  6
CONTINUOUS
 62
    11
  5
52D
 10
77.192597
 20
56.012516
 30
0.0
 11
77.204928
 21
55.449802
 31
0.0
  0
LINE
  8
PLAN
  6
CONTINUOUS
 62
    11
  5
52E
 10
77.204928
 20
55.449802
 30
0.0
 11
77.216672
 21
54.887082
 31
0.0
  0
LINE
  8
PLAN
  6
CONTINUOUS
 62
    11
  5
52F
 10
77.216672
 20
54.887082
 30
0.0
 11
77.226483
 21
54.324345
 31
0.0
  0
LINE
  8
PLAN
  6
CONTINUOUS
 62
    11
  5
530
 10
77.226483
 20
54.324345
 30
0.0
 11
77.233016
 21
53.761578
 31
0.0
  0
LINE
  8
PLAN
  6
CONTINUOUS
 62
    11
  5
531
 10
77.233016
 20
53.761578
 30
0.0
 11
77.237347
 21
53.120531
 31
0.0
  0
LINE
  8
PLAN
  6
CONTINUOUS
 62
    11
  5
532
 10
77.237347
 20
53.120531
 30
0.0
 11
77.240511
 21
52.479475
 31
0.0
  0
LINE
  8
PLAN
  6
CONTINUOUS
 62
    11
  5
533
 10
77.240511
 20
52.479475
 30
0.0
 11
77.242949
 21
51.838415
 31
0.0
  0
LINE
  8
PLAN
  6
CONTINUOUS
 62
    11
  5
534
 10
77.242949
 20
51.838415
 30
0.0
 11
77.245103
 21
51.197353
 31
0.0
  0
LINE
  8
PLAN
  6
CONTINUOUS
 62
    11
  5
535
 10
77.245103
 20
51.197353
 30
0.0
 11
77.247413
 21
50.556292
 31
0.0
  0
LINE
  8
PLAN
  6
CONTINUOUS
 62
    11
  5
536
 10
77.247413
 20
50.556292
 30
0.0
 11
77.250321
 21
49.915235
 31
0.0
  0
LINE
  8
PLAN
  6
CONTINUOUS
 62
    11
  5
537
 10
77.250321
 20
49.915235
 30
0.0
 11
77.254268
 21
49.274185
 31
0.0
  0
LINE
  8
PLAN
  6
CONTINUOUS
 62
    11
  5
538
 10
77.254268
 20
49.274185
 30
0.0
 11
77.259696
 21
48.633145
 31
0.0
  0
LINE
  8
PLAN
  6
CONTINUOUS
 62
    11
  5
539
 10
77.259696
 20
48.633145
 30
0.0
 11
77.267045
 21
47.992118
 31
0.0
  0
LINE
  8
PLAN
  6
CONTINUOUS
 62
    11
  5
53A
 10
77.267045
 20
47.992118
 30
0.0
 11
77.276758
 21
47.351107
 31
0.0
  0
LINE
  8
PLAN
  6
CONTINUOUS
 62
    11
  5
53B
 10
77.276758
 20
47.351107
 30
0.0
 11
77.282398
 21
47.048227
 31
0.0
  0
LINE
  8
PLAN
  6
CONTINUOUS
 62
    11
  5
53C
 10
77.282398
 20
47.048227
 30
0.0
 11
77.288994
 21
46.745384
 31
0.0
  0
LINE
  8
PLAN
  6
CONTINUOUS
 62
    11
  5
53D
 10
77.288994
 20
46.745384
 30
0.0
 11
77.296707
 21
46.442585
 31
0.0
  0
LINE
  8
PLAN
  6
CONTINUOUS
 62
    11
  5
53E
 10
77.296707
 20
46.442585
 30
0.0
 11
77.305698
 21
46.139837
 31
0.0
  0
LINE
  8
PLAN
  6
CONTINUOUS
 62
    11
  5
53F
 10
77.305698
 20
46.139837
 30
0.0
 11
77.316129
 21
45.837144
 31
0.0
  0
LINE
  8
PLAN
  6
CONTINUOUS
 62
    11
  5
540
 10
77.316129
 20
45.837144
 30
0.0
 11
77.328163
 21
45.534515
 31
0.0
  0
LINE
  8
PLAN
  6
CONTINUOUS
 62
    11
  5
541
 10
77.328163
 20
45.534515
 30
0.0
 11
77.341961
 21
45.231955
 31
0.0
  0
LINE
  8
PLAN
  6
CONTINUOUS
 62
    11
  5
542
 10
77.341961
 20
45.231955
 30
0.0
 11
77.357685
 21
44.92947
 31
0.0
  0
LINE
  8
PLAN
  6
CONTINUOUS
 62
    11
  5
543
 10
77.357685
 20
44.92947
 30
0.0
 11
77.375497
 21
44.627068
 31
0.0
  0
LINE
  8
PLAN
  6
CONTINUOUS
 62
    11
  5
544
 10
77.375497
 20
44.627068
 30
0.0
 11
77.395558
 21
44.324754
 31
0.0
  0
LINE
  8
PLAN
  6
CONTINUOUS
 62
    11
  5
545
 10
102.68236
 20
-23.769116
 30
0.0
 11
102.658186
 21
-23.473025
 31
0.0
  0
LINE
  8
PLAN
  6
CONTINUOUS
 62
    11
  5
546
 10
102.658186
 20
-23.473025
 30
0.0
 11
102.636442
 21
-23.176722
 31
0.0
  0
LINE
  8
PLAN
  6
CONTINUOUS
 62
    11
  5
547
 10
102.636442
 20
-23.176722
 30
0.0
 11
102.616087
 21
-22.880298
 31
0.0
  0
LINE
  8
PLAN
  6
CONTINUOUS
 62
    11
  5
548
 10
102.616087
 20
-22.880298
 30
0.0
 11
102.596079
 21
-22.583844
 31
0.0
  0
LINE
  8
PLAN
  6
CONTINUOUS
 62
    11
  5
549
 10
102.596079
 20
-22.583844
 30
0.0
 11
102.575376
 21
-22.287451
 31
0.0
  0
LINE
  8
PLAN
  6
CONTINUOUS
 62
    11
  5
54A
 10
102.575376
 20
-22.287451
 30
0.0
 11
102.552938
 21
-21.991208
 31
0.0
  0
LINE
  8
PLAN
  6
CONTINUOUS
 62
    11
  5
54B
 10
102.552938
 20
-21.991208
 30
0.0
 11
102.527724
 21
-21.695207
 31
0.0
  0
LINE
  8
PLAN
  6
CONTINUOUS
 62
    11
  5
54C
 10
102.527724
 20
-21.695207
 30
0.0
 11
102.498691
 21
-21.399538
 31
0.0
  0
LINE
  8
PLAN
  6
CONTINUOUS
 62
    11
  5
54D
 10
102.498691
 20
-21.399538
 30
0.0
 11
102.464799
 21
-21.104291
 31
0.0
  0
LINE
  8
PLAN
  6
CONTINUOUS
 62
    11
  5
54E
 10
102.464799
 20
-21.104291
 30
0.0
 11
102.425007
 21
-20.809558
 31
0.0
  0
LINE
  8
PLAN
  6
CONTINUOUS
 62
    11
  5
54F
 10
102.425007
 20
-20.809558
 30
0.0
 11
102.38813
 21
-20.574697
 31
0.0
  0
LINE
  8
PLAN
  6
CONTINUOUS
 62
    11
  5
550
 10
102.38813
 20
-20.574697
 30
0.0
 11
102.34672
 21
-20.340844
 31
0.0
  0
LINE
  8
PLAN
  6
CONTINUOUS
 62
    11
  5
551
 10
102.34672
 20
-20.340844
 30
0.0
 11
102.30126
 21
-20.10789
 31
0.0
  0
LINE
  8
PLAN
  6
CONTINUOUS
 62
    11
  5
552
 10
102.30126
 20
-20.10789
 30
0.0
 11
102.252235
 21
-19.875729
 31
0.0
  0
LINE
  8
PLAN
  6
CONTINUOUS
 62
    11
  5
553
 10
102.252235
 20
-19.875729
 30
0.0
 11
102.200128
 21
-19.644253
 31
0.0
  0
LINE
  8
PLAN
  6
CONTINUOUS
 62
    11
  5
554
 10
102.241034
 20
-19.842457
 30
0.0
 11
102.195381
 21
-19.609599
 31
0.0
  0
LINE
  8
PLAN
  6
CONTINUOUS
 62
    11
  5
555
 10
102.195381
 20
-19.609599
 30
0.0
 11
102.147597
 21
-19.377128
 31
0.0
  0
LINE
  8
PLAN
  6
CONTINUOUS
 62
    11
  5
556
 10
102.147597
 20
-19.377128
 30
0.0
 11
102.09817
 21
-19.144956
 31
0.0
  0
LINE
  8
PLAN
  6
CONTINUOUS
 62
    11
  5
557
 10
102.09817
 20
-19.144956
 30
0.0
 11
102.047587
 21
-18.912993
 31
0.0
  0
LINE
  8
PLAN
  6
CONTINUOUS
 62
    11
  5
558
 10
102.047587
 20
-18.912993
 30
0.0
 11
101.996337
 21
-18.681152
 31
0.0
  0
LINE
  8
PLAN
  6
CONTINUOUS
 62
    11
  5
559
 10
101.996337
 20
-18.681152
 30
0.0
 11
101.936623
 21
-18.419076
 31
0.0
  0
LINE
  8
PLAN
  6
CONTINUOUS
 62
    11
  5
55A
 10
101.936623
 20
-18.419076
 30
0.0
 11
101.874192
 21
-18.157701
 31
0.0
  0
LINE
  8
PLAN
  6
CONTINUOUS
 62
    11
  5
55B
 10
101.874192
 20
-18.157701
 30
0.0
 11
101.809447
 21
-17.896923
 31
0.0
  0
LINE
  8
PLAN
  6
CONTINUOUS
 62
    11
  5
55C
 10
101.809447
 20
-17.896923
 30
0.0
 11
101.74279
 21
-17.636637
 31
0.0
  0
LINE
  8
PLAN
  6
CONTINUOUS
 62
    11
  5
55D
 10
101.74279
 20
-17.636637
 30
0.0
 11
101.674625
 21
-17.376741
 31
0.0
  0
LINE
  8
PLAN
  6
CONTINUOUS
 62
    11
  5
55E
 10
101.674625
 20
-17.376741
 30
0.0
 11
101.605356
 21
-17.11713
 31
0.0
  0
LINE
  8
PLAN
  6
CONTINUOUS
 62
    11
  5
55F
 10
101.605356
 20
-17.11713
 30
0.0
 11
101.535384
 21
-16.8577
 31
0.0
  0
LINE
  8
PLAN
  6
CONTINUOUS
 62
    11
  5
560
 10
101.535384
 20
-16.8577
 30
0.0
 11
101.465114
 21
-16.598346
 31
0.0
  0
LINE
  8
PLAN
  6
CONTINUOUS
 62
    11
  5
561
 10
101.465114
 20
-16.598346
 30
0.0
 11
101.394949
 21
-16.338966
 31
0.0
  0
LINE
  8
PLAN
  6
CONTINUOUS
 62
    11
  5
562
 10
101.394949
 20
-16.338966
 30
0.0
 11
101.325292
 21
-16.079455
 31
0.0
  0
LINE
  8
PLAN
  6
CONTINUOUS
 62
    11
  5
563
 10
101.325292
 20
-16.079455
 30
0.0
 11
101.204057
 21
-15.623193
 31
0.0
  0
LINE
  8
PLAN
  6
CONTINUOUS
 62
    11
  5
564
 10
101.204057
 20
-15.623193
 30
0.0
 11
101.083458
 21
-15.166757
 31
0.0
  0
LINE
  8
PLAN
  6
CONTINUOUS
 62
    11
  5
565
 10
101.083458
 20
-15.166757
 30
0.0
 11
100.963037
 21
-14.710274
 31
0.0
  0
LINE
  8
PLAN
  6
CONTINUOUS
 62
    11
  5
566
 10
100.963037
 20
-14.710274
 30
0.0
 11
100.842337
 21
-14.253866
 31
0.0
  0
LINE
  8
PLAN
  6
CONTINUOUS
 62
    11
  5
567
 10
100.842337
 20
-14.253866
 30
0.0
 11
100.720901
 21
-13.797659
 31
0.0
  0
LINE
  8
PLAN
  6
CONTINUOUS
 62
    11
  5
568
 10
100.720901
 20
-13.797659
 30
0.0
 11
100.598271
 21
-13.341776
 31
0.0
  0
LINE
  8
PLAN
  6
CONTINUOUS
 62
    11
  5
569
 10
100.598271
 20
-13.341776
 30
0.0
 11
100.473991
 21
-12.886341
 31
0.0
  0
LINE
  8
PLAN
  6
CONTINUOUS
 62
    11
  5
56A
 10
100.473991
 20
-12.886341
 30
0.0
 11
100.347602
 21
-12.43148
 31
0.0
  0
LINE
  8
PLAN
  6
CONTINUOUS
 62
    11
  5
56B
 10
100.347602
 20
-12.43148
 30
0.0
 11
100.218649
 21
-11.977317
 31
0.0
  0
LINE
  8
PLAN
  6
CONTINUOUS
 62
    11
  5
56C
 10
100.218649
 20
-11.977317
 30
0.0
 11
100.086674
 21
-11.523975
 31
0.0
  0
LINE
  8
PLAN
  6
CONTINUOUS
 62
    11
  5
56D
 10
100.086674
 20
-11.523975
 30
0.0
 11
99.944559
 21
-11.052354
 31
0.0
  0
LINE
  8
PLAN
  6
CONTINUOUS
 62
    11
  5
56E
 10
99.944559
 20
-11.052354
 30
0.0
 11
99.797821
 21
-10.582201
 31
0.0
  0
LINE
  8
PLAN
  6
CONTINUOUS
 62
    11
  5
56F
 10
99.797821
 20
-10.582201
 30
0.0
 11
99.647614
 21
-10.113151
 31
0.0
  0
LINE
  8
PLAN
  6
CONTINUOUS
 62
    11
  5
570
 10
99.647614
 20
-10.113151
 30
0.0
 11
99.495091
 21
-9.644835
 31
0.0
  0
LINE
  8
PLAN
  6
CONTINUOUS
 62
    11
  5
571
 10
99.495091
 20
-9.644835
 30
0.0
 11
99.341406
 21
-9.176889
 31
0.0
  0
LINE
  8
PLAN
  6
CONTINUOUS
 62
    11
  5
572
 10
99.341406
 20
-9.176889
 30
0.0
 11
99.187712
 21
-8.708946
 31
0.0
  0
LINE
  8
PLAN
  6
CONTINUOUS
 62
    11
  5
573
 10
99.187712
 20
-8.708946
 30
0.0
 11
99.035163
 21
-8.240639
 31
0.0
  0
LINE
  8
PLAN
  6
CONTINUOUS
 62
    11
  5
574
 10
99.035163
 20
-8.240639
 30
0.0
 11
98.884912
 21
-7.771602
 31
0.0
  0
LINE
  8
PLAN
  6
CONTINUOUS
 62
    11
  5
575
 10
98.884912
 20
-7.771602
 30
0.0
 11
98.738113
 21
-7.301469
 31
0.0
  0
LINE
  8
PLAN
  6
CONTINUOUS
 62
    11
  5
576
 10
98.738113
 20
-7.301469
 30
0.0
 11
98.646061
 21
-6.797407
 31
0.0
  0
LINE
  8
PLAN
  6
CONTINUOUS
 62
    11
  5
577
 10
98.646061
 20
-6.797407
 30
0.0
 11
98.549046
 21
-6.294219
 31
0.0
  0
LINE
  8
PLAN
  6
CONTINUOUS
 62
    11
  5
578
 10
98.549046
 20
-6.294219
 30
0.0
 11
98.449195
 21
-5.791531
 31
0.0
  0
LINE
  8
PLAN
  6
CONTINUOUS
 62
    11
  5
579
 10
98.449195
 20
-5.791531
 30
0.0
 11
98.348635
 21
-5.288967
 31
0.0
  0
LINE
  8
PLAN
  6
CONTINUOUS
 62
    11
  5
57A
 10
98.348635
 20
-5.288967
 30
0.0
 11
98.249493
 21
-4.786154
 31
0.0
  0
LINE
  8
PLAN
  6
CONTINUOUS
 62
    11
  5
57B
 10
98.249493
 20
-4.786154
 30
0.0
 11
98.153896
 21
-4.282716
 31
0.0
  0
LINE
  8
PLAN
  6
CONTINUOUS
 62
    11
  5
57C
 10
98.153896
 20
-4.282716
 30
0.0
 11
98.063971
 21
-3.77828
 31
0.0
  0
LINE
  8
PLAN
  6
CONTINUOUS
 62
    11
  5
57D
 10
98.063971
 20
-3.77828
 30
0.0
 11
97.981844
 21
-3.27247
 31
0.0
  0
LINE
  8
PLAN
  6
CONTINUOUS
 62
    11
  5
57E
 10
97.981844
 20
-3.27247
 30
0.0
 11
97.909643
 21
-2.764913
 31
0.0
  0
LINE
  8
PLAN
  6
CONTINUOUS
 62
    11
  5
57F
 10
97.909643
 20
-2.764913
 30
0.0
 11
97.849495
 21
-2.255233
 31
0.0
  0
LINE
  8
PLAN
  6
CONTINUOUS
 62
    11
  5
580
 10
97.849495
 20
-2.255233
 30
0.0
 11
97.786231
 21
-1.650546
 31
0.0
  0
LINE
  8
PLAN
  6
CONTINUOUS
 62
    11
  5
581
 10
97.786231
 20
-1.650546
 30
0.0
 11
97.724498
 21
-1.04579
 31
0.0
  0
LINE
  8
PLAN
  6
CONTINUOUS
 62
    11
  5
582
 10
97.724498
 20
-1.04579
 30
0.0
 11
97.666721
 21
-0.440856
 31
0.0
  0
LINE
  8
PLAN
  6
CONTINUOUS
 62
    11
  5
583
 10
97.666721
 20
-0.440856
 30
0.0
 11
97.615323
 21
0.164365
 31
0.0
  0
LINE
  8
PLAN
  6
CONTINUOUS
 62
    11
  5
584
 10
97.615323
 20
0.164365
 30
0.0
 11
97.572727
 21
0.769982
 31
0.0
  0
LINE
  8
PLAN
  6
CONTINUOUS
 62
    11
  5
585
 10
97.572727
 20
0.769982
 30
0.0
 11
97.541356
 21
1.376105
 31
0.0
  0
LINE
  8
PLAN
  6
CONTINUOUS
 62
    11
  5
586
 10
97.541356
 20
1.376105
 30
0.0
 11
97.523633
 21
1.982842
 31
0.0
  0
LINE
  8
PLAN
  6
CONTINUOUS
 62
    11
  5
587
 10
97.523633
 20
1.982842
 30
0.0
 11
97.521982
 21
2.590302
 31
0.0
  0
LINE
  8
PLAN
  6
CONTINUOUS
 62
    11
  5
588
 10
97.521982
 20
2.590302
 30
0.0
 11
97.538827
 21
3.198595
 31
0.0
  0
LINE
  8
PLAN
  6
CONTINUOUS
 62
    11
  5
589
 10
97.517143
 20
3.195757
 30
0.0
 11
97.531103
 21
3.806001
 31
0.0
  0
LINE
  8
PLAN
  6
CONTINUOUS
 62
    11
  5
58A
 10
97.531103
 20
3.806001
 30
0.0
 11
97.582483
 21
4.855971
 31
0.0
  0
LINE
  8
PLAN
  6
CONTINUOUS
 62
    11
  5
58B
 10
97.582483
 20
4.855971
 30
0.0
 11
97.649744
 21
5.904131
 31
0.0
  0
LINE
  8
PLAN
  6
CONTINUOUS
 62
    11
  5
58C
 10
97.649744
 20
5.904131
 30
0.0
 11
97.732553
 21
6.950518
 31
0.0
  0
LINE
  8
PLAN
  6
CONTINUOUS
 62
    11
  5
58D
 10
97.732553
 20
6.950518
 30
0.0
 11
97.830575
 21
7.99517
 31
0.0
  0
LINE
  8
PLAN
  6
CONTINUOUS
 62
    11
  5
58E
 10
97.830575
 20
7.99517
 30
0.0
 11
97.943476
 21
9.038126
 31
0.0
  0
LINE
  8
PLAN
  6
CONTINUOUS
 62
    11
  5
58F
 10
97.943476
 20
9.038126
 30
0.0
 11
98.070921
 21
10.079424
 31
0.0
  0
LINE
  8
PLAN
  6
CONTINUOUS
 62
    11
  5
590
 10
98.070921
 20
10.079424
 30
0.0
 11
98.212576
 21
11.119101
 31
0.0
  0
LINE
  8
PLAN
  6
CONTINUOUS
 62
    11
  5
591
 10
98.212576
 20
11.119101
 30
0.0
 11
98.368107
 21
12.157197
 31
0.0
  0
LINE
  8
PLAN
  6
CONTINUOUS
 62
    11
  5
592
 10
98.368107
 20
12.157197
 30
0.0
 11
98.537178
 21
13.193749
 31
0.0
  0
LINE
  8
PLAN
  6
CONTINUOUS
 62
    11
  5
593
 10
98.537178
 20
13.193749
 30
0.0
 11
98.719455
 21
14.228795
 31
0.0
  0
LINE
  8
PLAN
  6
CONTINUOUS
 62
    11
  5
594
 10
98.719455
 20
14.228795
 30
0.0
 11
98.901014
 21
15.103444
 31
0.0
  0
LINE
  8
PLAN
  6
CONTINUOUS
 62
    11
  5
595
 10
98.901014
 20
15.103444
 30
0.0
 11
99.118135
 21
15.968658
 31
0.0
  0
LINE
  8
PLAN
  6
CONTINUOUS
 62
    11
  5
596
 10
99.118135
 20
15.968658
 30
0.0
 11
99.361412
 21
16.826932
 31
0.0
  0
LINE
  8
PLAN
  6
CONTINUOUS
 62
    11
  5
597
 10
99.361412
 20
16.826932
 30
0.0
 11
99.621443
 21
17.680761
 31
0.0
  0
LINE
  8
PLAN
  6
CONTINUOUS
 62
    11
  5
598
 10
99.621443
 20
17.680761
 30
0.0
 11
99.888823
 21
18.532641
 31
0.0
  0
LINE
  8
PLAN
  6
CONTINUOUS
 62
    11
  5
599
 10
99.888823
 20
18.532641
 30
0.0
 11
100.154147
 21
19.385065
 31
0.0
  0
LINE
  8
PLAN
  6
CONTINUOUS
 62
    11
  5
59A
 10
100.154147
 20
19.385065
 30
0.0
 11
100.408013
 21
20.24053
 31
0.0
  0
LINE
  8
PLAN
  6
CONTINUOUS
 62
    11
  5
59B
 10
100.408013
 20
20.24053
 30
0.0
 11
100.641014
 21
21.101531
 31
0.0
  0
LINE
  8
PLAN
  6
CONTINUOUS
 62
    11
  5
59C
 10
100.641014
 20
21.101531
 30
0.0
 11
100.843748
 21
21.970562
 31
0.0
  0
LINE
  8
PLAN
  6
CONTINUOUS
 62
    11
  5
59D
 10
100.843748
 20
21.970562
 30
0.0
 11
101.00681
 21
22.850118
 31
0.0
  0
LINE
  8
PLAN
  6
CONTINUOUS
 62
    11
  5
59E
 10
101.00681
 20
22.850118
 30
0.0
 11
101.131148
 21
23.747968
 31
0.0
  0
LINE
  8
PLAN
  6
CONTINUOUS
 62
    11
  5
59F
 10
101.131148
 20
23.747968
 30
0.0
 11
101.22415
 21
24.647565
 31
0.0
  0
LINE
  8
PLAN
  6
CONTINUOUS
 62
    11
  5
5A0
 10
101.22415
 20
24.647565
 30
0.0
 11
101.29488
 21
25.11085
 31
0.0
  0
LINE
  8
PLAN
  6
CONTINUOUS
 62
    11
  5
5A1
 10
101.29488
 20
25.11085
 30
0.0
 11
101.369331
 21
25.573587
 31
0.0
  0
LINE
  8
PLAN
  6
CONTINUOUS
 62
    11
  5
5A2
 10
101.369331
 20
25.573587
 30
0.0
 11
101.445908
 21
26.036011
 31
0.0
  0
LINE
  8
PLAN
  6
CONTINUOUS
 62
    11
  5
5A3
 10
101.445908
 20
26.036011
 30
0.0
 11
101.523016
 21
26.498356
 31
0.0
  0
LINE
  8
PLAN
  6
CONTINUOUS
 62
    11
  5
5A4
 10
101.523016
 20
26.498356
 30
0.0
 11
101.599061
 21
26.960858
 31
0.0
  0
LINE
  8
PLAN
  6
CONTINUOUS
 62
    11
  5
5A5
 10
101.599061
 20
26.960858
 30
0.0
 11
101.672449
 21
27.423751
 31
0.0
  0
LINE
  8
PLAN
  6
CONTINUOUS
 62
    11
  5
5A6
 10
101.672449
 20
27.423751
 30
0.0
 11
101.741585
 21
27.887272
 31
0.0
  0
LINE
  8
PLAN
  6
CONTINUOUS
 62
    11
  5
5A7
 10
101.741585
 20
27.887272
 30
0.0
 11
101.804877
 21
28.351653
 31
0.0
  0
LINE
  8
PLAN
  6
CONTINUOUS
 62
    11
  5
5A8
 10
101.804877
 20
28.351653
 30
0.0
 11
101.860728
 21
28.817132
 31
0.0
  0
LINE
  8
PLAN
  6
CONTINUOUS
 62
    11
  5
5A9
 10
101.860728
 20
28.817132
 30
0.0
 11
101.907545
 21
29.283942
 31
0.0
  0
LINE
  8
PLAN
  6
CONTINUOUS
 62
    11
  5
5AA
 10
101.907545
 20
29.283942
 30
0.0
 11
101.969234
 21
30.016183
 31
0.0
  0
LINE
  8
PLAN
  6
CONTINUOUS
 62
    11
  5
5AB
 10
101.969234
 20
30.016183
 30
0.0
 11
102.023963
 21
30.74879
 31
0.0
  0
LINE
  8
PLAN
  6
CONTINUOUS
 62
    11
  5
5AC
 10
102.023963
 20
30.74879
 30
0.0
 11
102.072418
 21
31.481727
 31
0.0
  0
LINE
  8
PLAN
  6
CONTINUOUS
 62
    11
  5
5AD
 10
102.072418
 20
31.481727
 30
0.0
 11
102.115285
 21
32.214959
 31
0.0
  0
LINE
  8
PLAN
  6
CONTINUOUS
 62
    11
  5
5AE
 10
102.115285
 20
32.214959
 30
0.0
 11
102.15325
 21
32.948448
 31
0.0
  0
LINE
  8
PLAN
  6
CONTINUOUS
 62
    11
  5
5AF
 10
102.15325
 20
32.948448
 30
0.0
 11
102.187001
 21
33.682159
 31
0.0
  0
LINE
  8
PLAN
  6
CONTINUOUS
 62
    11
  5
5B0
 10
102.187001
 20
33.682159
 30
0.0
 11
102.217222
 21
34.416056
 31
0.0
  0
LINE
  8
PLAN
  6
CONTINUOUS
 62
    11
  5
5B1
 10
102.217222
 20
34.416056
 30
0.0
 11
102.244601
 21
35.150103
 31
0.0
  0
LINE
  8
PLAN
  6
CONTINUOUS
 62
    11
  5
5B2
 10
102.244601
 20
35.150103
 30
0.0
 11
102.269823
 21
35.884263
 31
0.0
  0
LINE
  8
PLAN
  6
CONTINUOUS
 62
    11
  5
5B3
 10
102.269823
 20
35.884263
 30
0.0
 11
102.293575
 21
36.618501
 31
0.0
  0
LINE
  8
PLAN
  6
CONTINUOUS
 62
    11
  5
5B4
 10
103.018123
 20
64.364708
 30
0.0
 11
102.293575
 21
36.618501
 31
0.0
  0
LINE
  8
PLAN
  6
CONTINUOUS
 62
    11
  5
5B5
 10
102.68236
 20
-23.769116
 30
0.0
 11
102.705019
 21
-24.032997
 31
0.0
  0
LINE
  8
PLAN
  6
CONTINUOUS
 62
    11
  5
5B6
 10
102.705019
 20
-24.032997
 30
0.0
 11
102.729439
 21
-24.296734
 31
0.0
  0
LINE
  8
PLAN
  6
CONTINUOUS
 62
    11
  5
5B7
 10
102.729439
 20
-24.296734
 30
0.0
 11
102.754865
 21
-24.560388
 31
0.0
  0
LINE
  8
PLAN
  6
CONTINUOUS
 62
    11
  5
5B8
 10
102.754865
 20
-24.560388
 30
0.0
 11
102.780543
 21
-24.824022
 31
0.0
  0
LINE
  8
PLAN
  6
CONTINUOUS
 62
    11
  5
5B9
 10
102.780543
 20
-24.824022
 30
0.0
 11
102.805717
 21
-25.087698
 31
0.0
  0
LINE
  8
PLAN
  6
CONTINUOUS
 62
    11
  5
5BA
 10
102.805717
 20
-25.087698
 30
0.0
 11
102.829634
 21
-25.351475
 31
0.0
  0
LINE
  8
PLAN
  6
CONTINUOUS
 62
    11
  5
5BB
 10
102.829634
 20
-25.351475
 30
0.0
 11
102.851539
 21
-25.615417
 31
0.0
  0
LINE
  8
PLAN
  6
CONTINUOUS
 62
    11
  5
5BC
 10
102.851539
 20
-25.615417
 30
0.0
 11
102.870676
 21
-25.879585
 31
0.0
  0
LINE
  8
PLAN
  6
CONTINUOUS
 62
    11
  5
5BD
 10
102.870676
 20
-25.879585
 30
0.0
 11
102.886292
 21
-26.14404
 31
0.0
  0
LINE
  8
PLAN
  6
CONTINUOUS
 62
    11
  5
5BE
 10
102.886292
 20
-26.14404
 30
0.0
 11
102.897631
 21
-26.408843
 31
0.0
  0
LINE
  8
PLAN
  6
CONTINUOUS
 62
    11
  5
5BF
 10
102.897631
 20
-26.408843
 30
0.0
 11
102.907847
 21
-26.7823
 31
0.0
  0
LINE
  8
PLAN
  6
CONTINUOUS
 62
    11
  5
5C0
 10
102.907847
 20
-26.7823
 30
0.0
 11
102.913775
 21
-27.155757
 31
0.0
  0
LINE
  8
PLAN
  6
CONTINUOUS
 62
    11
  5
5C1
 10
102.913775
 20
-27.155757
 30
0.0
 11
102.916171
 21
-27.529214
 31
0.0
  0
LINE
  8
PLAN
  6
CONTINUOUS
 62
    11
  5
5C2
 10
102.916171
 20
-27.529214
 30
0.0
 11
102.915793
 21
-27.902671
 31
0.0
  0
LINE
  8
PLAN
  6
CONTINUOUS
 62
    11
  5
5C3
 10
102.915793
 20
-27.902671
 30
0.0
 11
102.913396
 21
-28.276129
 31
0.0
  0
LINE
  8
PLAN
  6
CONTINUOUS
 62
    11
  5
5C4
 10
102.913396
 20
-28.276129
 30
0.0
 11
102.909739
 21
-28.649586
 31
0.0
  0
LINE
  8
PLAN
  6
CONTINUOUS
 62
    11
  5
5C5
 10
102.909739
 20
-28.649586
 30
0.0
 11
102.905577
 21
-29.023043
 31
0.0
  0
LINE
  8
PLAN
  6
CONTINUOUS
 62
    11
  5
5C6
 10
102.905577
 20
-29.023043
 30
0.0
 11
102.901667
 21
-29.3965
 31
0.0
  0
LINE
  8
PLAN
  6
CONTINUOUS
 62
    11
  5
5C7
 10
102.901667
 20
-29.3965
 30
0.0
 11
102.898766
 21
-29.769957
 31
0.0
  0
LINE
  8
PLAN
  6
CONTINUOUS
 62
    11
  5
5C8
 10
102.898766
 20
-29.769957
 30
0.0
 11
102.897631
 21
-30.143414
 31
0.0
  0
LINE
  8
PLAN
  6
CONTINUOUS
 62
    11
  5
5C9
 10
102.897631
 20
-30.143414
 30
0.0
 11
102.777812
 21
-46.698269
 31
0.0
  0
LINE
  8
PLAN
  6
CONTINUOUS
 62
    11
  5
5CA
 10
103.692574
 20
-46.698269
 30
0.0
 11
73.644247
 21
-46.698269
 31
0.0
  0
LINE
  8
PLAN
  6
CONTINUOUS
 62
    11
  5
5CB
 10
73.644247
 20
-46.698269
 30
0.0
 11
73.764065
 21
-15.276469
 31
0.0
  0
LINE
  8
PLAN
  6
CONTINUOUS
 62
     8
  5
5CC
 10
102.838932
 20
57.502656
 30
0.0
 11
102.721461
 21
53.004189
 31
0.0
  0
LINE
  8
PLAN
  6
CONTINUOUS
 62
     8
  5
5CD
 10
102.721461
 20
53.004189
 30
0.0
 11
100.722143
 21
53.056398
 31
0.0
  0
LINE
  8
PLAN
  6
CONTINUOUS
 62
     8
  5
5CE
 10
100.722143
 20
53.056398
 30
0.0
 11
100.839613
 21
57.554865
 31
0.0
  0
LINE
  8
PLAN
  6
CONTINUOUS
 62
     8
  5
5CF
 10
100.839613
 20
57.554865
 30
0.0
 11
102.838932
 21
57.502656
 31
0.0
  0
LINE
  8
PLAN
  6
CONTINUOUS
 62
     8
  5
5D0
 10
100.813509
 20
56.555205
 30
0.0
 11
85.81862
 21
56.946773
 31
0.0
  0
LINE
  8
PLAN
  6
CONTINUOUS
 62
     8
  5
5D1
 10
85.81862
 20
56.946773
 30
0.0
 11
85.753359
 21
54.447625
 31
0.0
  0
LINE
  8
PLAN
  6
CONTINUOUS
 62
     8
  5
5D2
 10
85.753359
 20
54.447625
 30
0.0
 11
100.748247
 21
54.056057
 31
0.0
  0
LINE
  8
PLAN
  6
CONTINUOUS
 62
     8
  5
5D3
 10
106.496398
 20
-39.428459
 30
0.0
 11
106.50194
 21
-43.928456
 31
0.0
  0
LINE
  8
PLAN
  6
CONTINUOUS
 62
     8
  5
5D4
 10
106.50194
 20
-43.928456
 30
0.0
 11
104.501941
 21
-43.930919
 31
0.0
  0
LINE
  8
PLAN
  6
CONTINUOUS
 62
     8
  5
5D5
 10
104.501941
 20
-43.930919
 30
0.0
 11
104.4964
 21
-39.430922
 31
0.0
  0
LINE
  8
PLAN
  6
CONTINUOUS
 62
     8
  5
5D6
 10
104.4964
 20
-39.430922
 30
0.0
 11
106.496398
 21
-39.428459
 31
0.0
  0
LINE
  8
PLAN
  6
CONTINUOUS
 62
     8
  5
5D7
 10
104.497631
 20
-40.430922
 30
0.0
 11
89.497642
 21
-40.449395
 31
0.0
  0
LINE
  8
PLAN
  6
CONTINUOUS
 62
     8
  5
5D8
 10
89.497642
 20
-40.449395
 30
0.0
 11
89.500721
 21
-42.949393
 31
0.0
  0
LINE
  8
PLAN
  6
CONTINUOUS
 62
     8
  5
5D9
 10
89.500721
 20
-42.949393
 30
0.0
 11
104.50071
 21
-42.93092
 31
0.0
  0
LINE
  8
PLAN
  6
BORDER2
 62
    11
  5
5DA
 10
97.60068
 20
2.641731
 30
0.0
 11
80.165018
 21
2.641731
 31
0.0
  0
LINE
  8
PLAN
  6
CONTINUOUS
 62
    11
  5
5DB
 10
102.897631
 20
-32.698269
 30
0.0
 11
102.897631
 21
-60.398269
 31
0.0
  0
LINE
  8
PLAN
  6
CONTINUOUS
 62
    11
  5
5DC
 10
102.897631
 20
-60.398269
 30
0.0
 11
104.497631
 21
-60.398269
 31
0.0
  0
LINE
  8
PLAN
  6
CONTINUOUS
 62
    11
  5
5DD
 10
104.497631
 20
-60.398269
 30
0.0
 11
104.497631
 21
-32.698269
 31
0.0
  0
LINE
  8
PLAN
  6
CONTINUOUS
 62
    11
  5
5DE
 10
104.497631
 20
-32.698269
 30
0.0
 11
102.897631
 21
-32.698269
 31
0.0
  0
LINE
  8
PLAN
  6
CONTINUOUS
 62
    11
  5
5DF
 10
-17.486012
 20
-70.87034
 30
0.0
 11
-17.486012
 21
-77.17951
 31
0.0
  0
LINE
  8
PLAN
  6
CONTINUOUS
 62
    11
  5
5E0
 10
-17.486012
 20
-77.17951
 30
0.0
 11
-17.502212
 21
-77.473327
 31
0.0
  0
LINE
  8
PLAN
  6
CONTINUOUS
 62
    11
  5
5E1
 10
-17.502212
 20
-77.473327
 30
0.0
 11
-17.513894
 21
-77.767437
 31
0.0
  0
LINE
  8
PLAN
  6
CONTINUOUS
 62
    11
  5
5E2
 10
-17.513894
 20
-77.767437
 30
0.0
 11
-17.522994
 21
-78.061715
 31
0.0
  0
LINE
  8
PLAN
  6
CONTINUOUS
 62
    11
  5
5E3
 10
-17.522994
 20
-78.061715
 30
0.0
 11
-17.531449
 21
-78.356036
 31
0.0
  0
LINE
  8
PLAN
  6
CONTINUOUS
 62
    11
  5
5E4
 10
-17.531449
 20
-78.356036
 30
0.0
 11
-17.541195
 21
-78.650272
 31
0.0
  0
LINE
  8
PLAN
  6
CONTINUOUS
 62
    11
  5
5E5
 10
-17.541195
 20
-78.650272
 30
0.0
 11
-17.554168
 21
-78.944298
 31
0.0
  0
LINE
  8
PLAN
  6
CONTINUOUS
 62
    11
  5
5E6
 10
-17.554168
 20
-78.944298
 30
0.0
 11
-17.572304
 21
-79.237988
 31
0.0
  0
LINE
  8
PLAN
  6
CONTINUOUS
 62
    11
  5
5E7
 10
-17.572304
 20
-79.237988
 30
0.0
 11
-17.597541
 21
-79.531217
 31
0.0
  0
LINE
  8
PLAN
  6
CONTINUOUS
 62
    11
  5
5E8
 10
-17.597541
 20
-79.531217
 30
0.0
 11
-17.631813
 21
-79.823857
 31
0.0
  0
LINE
  8
PLAN
  6
CONTINUOUS
 62
    11
  5
5E9
 10
-17.631813
 20
-79.823857
 30
0.0
 11
-17.677058
 21
-80.115784
 31
0.0
  0
LINE
  8
PLAN
  6
CONTINUOUS
 62
    11
  5
5EA
 10
-17.677058
 20
-80.115784
 30
0.0
 11
-17.750745
 21
-80.522231
 31
0.0
  0
LINE
  8
PLAN
  6
CONTINUOUS
 62
    11
  5
5EB
 10
-17.750745
 20
-80.522231
 30
0.0
 11
-17.82888
 21
-80.927529
 31
0.0
  0
LINE
  8
PLAN
  6
CONTINUOUS
 62
    11
  5
5EC
 10
-17.82888
 20
-80.927529
 30
0.0
 11
-17.912232
 21
-81.331481
 31
0.0
  0
LINE
  8
PLAN
  6
CONTINUOUS
 62
    11
  5
5ED
 10
-17.912232
 20
-81.331481
 30
0.0
 11
-18.001573
 21
-81.733888
 31
0.0
  0
LINE
  8
PLAN
  6
CONTINUOUS
 62
    11
  5
5EE
 10
-18.001573
 20
-81.733888
 30
0.0
 11
-18.097671
 21
-82.134551
 31
0.0
  0
LINE
  8
PLAN
  6
CONTINUOUS
 62
    11
  5
5EF
 10
-18.097671
 20
-82.134551
 30
0.0
 11
-18.201297
 21
-82.533272
 31
0.0
  0
LINE
  8
PLAN
  6
CONTINUOUS
 62
    11
  5
5F0
 10
-18.201297
 20
-82.533272
 30
0.0
 11
-18.31322
 21
-82.929851
 31
0.0
  0
LINE
  8
PLAN
  6
CONTINUOUS
 62
    11
  5
5F1
 10
-18.31322
 20
-82.929851
 30
0.0
 11
-18.43421
 21
-83.32409
 31
0.0
  0
LINE
  8
PLAN
  6
CONTINUOUS
 62
    11
  5
5F2
 10
-18.43421
 20
-83.32409
 30
0.0
 11
-18.565037
 21
-83.715791
 31
0.0
  0
LINE
  8
PLAN
  6
CONTINUOUS
 62
    11
  5
5F3
 10
-18.565037
 20
-83.715791
 30
0.0
 11
-18.70647
 21
-84.104755
 31
0.0
  0
LINE
  8
PLAN
  6
CONTINUOUS
 62
    11
  5
5F4
 10
-18.70647
 20
-84.104755
 30
0.0
 11
-18.847582
 21
-84.472421
 31
0.0
  0
LINE
  8
PLAN
  6
CONTINUOUS
 62
    11
  5
5F5
 10
-18.847582
 20
-84.472421
 30
0.0
 11
-18.992637
 21
-84.838044
 31
0.0
  0
LINE
  8
PLAN
  6
CONTINUOUS
 62
    11
  5
5F6
 10
-18.992637
 20
-84.838044
 30
0.0
 11
-19.14341
 21
-85.200701
 31
0.0
  0
LINE
  8
PLAN
  6
CONTINUOUS
 62
    11
  5
5F7
 10
-19.14341
 20
-85.200701
 30
0.0
 11
-19.301675
 21
-85.559474
 31
0.0
  0
LINE
  8
PLAN
  6
CONTINUOUS
 62
    11
  5
5F8
 10
-19.301675
 20
-85.559474
 30
0.0
 11
-19.469206
 21
-85.913442
 31
0.0
  0
LINE
  8
PLAN
  6
CONTINUOUS
 62
    11
  5
5F9
 10
-19.469206
 20
-85.913442
 30
0.0
 11
-19.647777
 21
-86.261686
 31
0.0
  0
LINE
  8
PLAN
  6
CONTINUOUS
 62
    11
  5
5FA
 10
-19.647777
 20
-86.261686
 30
0.0
 11
-19.839161
 21
-86.603286
 31
0.0
  0
LINE
  8
PLAN
  6
CONTINUOUS
 62
    11
  5
5FB
 10
-19.839161
 20
-86.603286
 30
0.0
 11
-20.045134
 21
-86.937321
 31
0.0
  0
LINE
  8
PLAN
  6
CONTINUOUS
 62
    11
  5
5FC
 10
-20.045134
 20
-86.937321
 30
0.0
 11
-20.267469
 21
-87.262872
 31
0.0
  0
LINE
  8
PLAN
  6
CONTINUOUS
 62
    11
  5
5FD
 10
-20.267469
 20
-87.262872
 30
0.0
 11
-20.507941
 21
-87.579019
 31
0.0
  0
LINE
  8
PLAN
  6
CONTINUOUS
 62
    11
  5
5FE
 10
-20.507941
 20
-87.579019
 30
0.0
 11
-20.810546
 21
-87.938267
 31
0.0
  0
LINE
  8
PLAN
  6
CONTINUOUS
 62
    11
  5
5FF
 10
-20.810546
 20
-87.938267
 30
0.0
 11
-21.126737
 21
-88.282231
 31
0.0
  0
LINE
  8
PLAN
  6
CONTINUOUS
 62
    11
  5
600
 10
-21.126737
 20
-88.282231
 30
0.0
 11
-21.455153
 21
-88.612441
 31
0.0
  0
LINE
  8
PLAN
  6
CONTINUOUS
 62
    11
  5
601
 10
-21.455153
 20
-88.612441
 30
0.0
 11
-21.794435
 21
-88.930426
 31
0.0
  0
LINE
  8
PLAN
  6
CONTINUOUS
 62
    11
  5
602
 10
-21.794435
 20
-88.930426
 30
0.0
 11
-22.143225
 21
-89.237716
 31
0.0
  0
LINE
  8
PLAN
  6
CONTINUOUS
 62
    11
  5
603
 10
-22.143225
 20
-89.237716
 30
0.0
 11
-22.500163
 21
-89.53584
 31
0.0
  0
LINE
  8
PLAN
  6
CONTINUOUS
 62
    11
  5
604
 10
-22.500163
 20
-89.53584
 30
0.0
 11
-22.863889
 21
-89.826326
 31
0.0
  0
LINE
  8
PLAN
  6
CONTINUOUS
 62
    11
  5
605
 10
-22.863889
 20
-89.826326
 30
0.0
 11
-23.233044
 21
-90.110704
 31
0.0
  0
LINE
  8
PLAN
  6
CONTINUOUS
 62
    11
  5
606
 10
-23.233044
 20
-90.110704
 30
0.0
 11
-23.606269
 21
-90.390504
 31
0.0
  0
LINE
  8
PLAN
  6
CONTINUOUS
 62
    11
  5
607
 10
-23.606269
 20
-90.390504
 30
0.0
 11
-23.982206
 21
-90.667255
 31
0.0
  0
LINE
  8
PLAN
  6
CONTINUOUS
 62
    11
  5
608
 10
-23.982206
 20
-90.667255
 30
0.0
 11
-24.147342
 21
-90.779485
 31
0.0
  0
LINE
  8
PLAN
  6
CONTINUOUS
 62
    11
  5
609
 10
-24.147342
 20
-90.779485
 30
0.0
 11
-24.317635
 21
-90.879683
 31
0.0
  0
LINE
  8
PLAN
  6
CONTINUOUS
 62
    11
  5
60A
 10
-24.317635
 20
-90.879683
 30
0.0
 11
-24.492403
 21
-90.969441
 31
0.0
  0
LINE
  8
PLAN
  6
CONTINUOUS
 62
    11
  5
60B
 10
-24.492403
 20
-90.969441
 30
0.0
 11
-24.670961
 21
-91.050354
 31
0.0
  0
LINE
  8
PLAN
  6
CONTINUOUS
 62
    11
  5
60C
 10
-24.670961
 20
-91.050354
 30
0.0
 11
-24.852628
 21
-91.124015
 31
0.0
  0
LINE
  8
PLAN
  6
CONTINUOUS
 62
    11
  5
60D
 10
-24.852628
 20
-91.124015
 30
0.0
 11
-25.036719
 21
-91.192017
 31
0.0
  0
LINE
  8
PLAN
  6
CONTINUOUS
 62
    11
  5
60E
 10
-25.036719
 20
-91.192017
 30
0.0
 11
-25.222553
 21
-91.255954
 31
0.0
  0
LINE
  8
PLAN
  6
CONTINUOUS
 62
    11
  5
60F
 10
-25.222553
 20
-91.255954
 30
0.0
 11
-25.409445
 21
-91.31742
 31
0.0
  0
LINE
  8
PLAN
  6
CONTINUOUS
 62
    11
  5
610
 10
-25.409445
 20
-91.31742
 30
0.0
 11
-25.596714
 21
-91.378009
 31
0.0
  0
LINE
  8
PLAN
  6
CONTINUOUS
 62
    11
  5
611
 10
-25.596714
 20
-91.378009
 30
0.0
 11
-25.783676
 21
-91.439313
 31
0.0
  0
LINE
  8
PLAN
  6
CONTINUOUS
 62
    11
  5
612
 10
-25.783676
 20
-91.439313
 30
0.0
 11
-25.947684
 21
-91.492093
 31
0.0
  0
LINE
  8
PLAN
  6
CONTINUOUS
 62
    11
  5
613
 10
-25.947684
 20
-91.492093
 30
0.0
 11
-26.112485
 21
-91.541437
 31
0.0
  0
LINE
  8
PLAN
  6
CONTINUOUS
 62
    11
  5
614
 10
-26.112485
 20
-91.541437
 30
0.0
 11
-26.278054
 21
-91.587451
 31
0.0
  0
LINE
  8
PLAN
  6
CONTINUOUS
 62
    11
  5
615
 10
-26.278054
 20
-91.587451
 30
0.0
 11
-26.444367
 21
-91.630243
 31
0.0
  0
LINE
  8
PLAN
  6
CONTINUOUS
 62
    11
  5
616
 10
-26.444367
 20
-91.630243
 30
0.0
 11
-26.611398
 21
-91.66992
 31
0.0
  0
LINE
  8
PLAN
  6
CONTINUOUS
 62
    11
  5
617
 10
-26.611398
 20
-91.66992
 30
0.0
 11
-26.779124
 21
-91.706589
 31
0.0
  0
LINE
  8
PLAN
  6
CONTINUOUS
 62
    11
  5
618
 10
-26.779124
 20
-91.706589
 30
0.0
 11
-26.947518
 21
-91.740359
 31
0.0
  0
LINE
  8
PLAN
  6
CONTINUOUS
 62
    11
  5
619
 10
-26.947518
 20
-91.740359
 30
0.0
 11
-27.116558
 21
-91.771337
 31
0.0
  0
LINE
  8
PLAN
  6
CONTINUOUS
 62
    11
  5
61A
 10
-27.116558
 20
-91.771337
 30
0.0
 11
-27.286216
 21
-91.799629
 31
0.0
  0
LINE
  8
PLAN
  6
CONTINUOUS
 62
    11
  5
61B
 10
-41.486012
 20
-70.87034
 30
0.0
 11
-41.486012
 21
-77.17951
 31
0.0
  0
LINE
  8
PLAN
  6
CONTINUOUS
 62
    11
  5
61C
 10
-41.486012
 20
-77.17951
 30
0.0
 11
-41.469812
 21
-77.473327
 31
0.0
  0
LINE
  8
PLAN
  6
CONTINUOUS
 62
    11
  5
61D
 10
-41.469812
 20
-77.473327
 30
0.0
 11
-41.45813
 21
-77.767437
 31
0.0
  0
LINE
  8
PLAN
  6
CONTINUOUS
 62
    11
  5
61E
 10
-41.45813
 20
-77.767437
 30
0.0
 11
-41.449029
 21
-78.061715
 31
0.0
  0
LINE
  8
PLAN
  6
CONTINUOUS
 62
    11
  5
61F
 10
-41.449029
 20
-78.061715
 30
0.0
 11
-41.440574
 21
-78.356036
 31
0.0
  0
LINE
  8
PLAN
  6
CONTINUOUS
 62
    11
  5
620
 10
-41.440574
 20
-78.356036
 30
0.0
 11
-41.430829
 21
-78.650272
 31
0.0
  0
LINE
  8
PLAN
  6
CONTINUOUS
 62
    11
  5
621
 10
-41.430829
 20
-78.650272
 30
0.0
 11
-41.417856
 21
-78.944298
 31
0.0
  0
LINE
  8
PLAN
  6
CONTINUOUS
 62
    11
  5
622
 10
-41.417856
 20
-78.944298
 30
0.0
 11
-41.399719
 21
-79.237988
 31
0.0
  0
LINE
  8
PLAN
  6
CONTINUOUS
 62
    11
  5
623
 10
-41.399719
 20
-79.237988
 30
0.0
 11
-41.374483
 21
-79.531217
 31
0.0
  0
LINE
  8
PLAN
  6
CONTINUOUS
 62
    11
  5
624
 10
-41.374483
 20
-79.531217
 30
0.0
 11
-41.34021
 21
-79.823857
 31
0.0
  0
LINE
  8
PLAN
  6
CONTINUOUS
 62
    11
  5
625
 10
-41.34021
 20
-79.823857
 30
0.0
 11
-41.294965
 21
-80.115784
 31
0.0
  0
LINE
  8
PLAN
  6
CONTINUOUS
 62
    11
  5
626
 10
-41.294965
 20
-80.115784
 30
0.0
 11
-41.221279
 21
-80.522231
 31
0.0
  0
LINE
  8
PLAN
  6
CONTINUOUS
 62
    11
  5
627
 10
-41.221279
 20
-80.522231
 30
0.0
 11
-41.143144
 21
-80.927529
 31
0.0
  0
LINE
  8
PLAN
  6
CONTINUOUS
 62
    11
  5
628
 10
-41.143144
 20
-80.927529
 30
0.0
 11
-41.059791
 21
-81.331481
 31
0.0
  0
LINE
  8
PLAN
  6
CONTINUOUS
 62
    11
  5
629
 10
-41.059791
 20
-81.331481
 30
0.0
 11
-40.970451
 21
-81.733888
 31
0.0
  0
LINE
  8
PLAN
  6
CONTINUOUS
 62
    11
  5
62A
 10
-40.970451
 20
-81.733888
 30
0.0
 11
-40.874353
 21
-82.134551
 31
0.0
  0
LINE
  8
PLAN
  6
CONTINUOUS
 62
    11
  5
62B
 10
-40.874353
 20
-82.134551
 30
0.0
 11
-40.770727
 21
-82.533272
 31
0.0
  0
LINE
  8
PLAN
  6
CONTINUOUS
 62
    11
  5
62C
 10
-40.770727
 20
-82.533272
 30
0.0
 11
-40.658804
 21
-82.929851
 31
0.0
  0
LINE
  8
PLAN
  6
CONTINUOUS
 62
    11
  5
62D
 10
-40.658804
 20
-82.929851
 30
0.0
 11
-40.537814
 21
-83.32409
 31
0.0
  0
LINE
  8
PLAN
  6
CONTINUOUS
 62
    11
  5
62E
 10
-40.537814
 20
-83.32409
 30
0.0
 11
-40.406987
 21
-83.715791
 31
0.0
  0
LINE
  8
PLAN
  6
CONTINUOUS
 62
    11
  5
62F
 10
-40.406987
 20
-83.715791
 30
0.0
 11
-40.265553
 21
-84.104755
 31
0.0
  0
LINE
  8
PLAN
  6
CONTINUOUS
 62
    11
  5
630
 10
-40.265553
 20
-84.104755
 30
0.0
 11
-40.124442
 21
-84.472421
 31
0.0
  0
LINE
  8
PLAN
  6
CONTINUOUS
 62
    11
  5
631
 10
-40.124442
 20
-84.472421
 30
0.0
 11
-39.979386
 21
-84.838044
 31
0.0
  0
LINE
  8
PLAN
  6
CONTINUOUS
 62
    11
  5
632
 10
-39.979386
 20
-84.838044
 30
0.0
 11
-39.828613
 21
-85.200701
 31
0.0
  0
LINE
  8
PLAN
  6
CONTINUOUS
 62
    11
  5
633
 10
-39.828613
 20
-85.200701
 30
0.0
 11
-39.670348
 21
-85.559474
 31
0.0
  0
LINE
  8
PLAN
  6
CONTINUOUS
 62
    11
  5
634
 10
-39.670348
 20
-85.559474
 30
0.0
 11
-39.502817
 21
-85.913442
 31
0.0
  0
LINE
  8
PLAN
  6
CONTINUOUS
 62
    11
  5
635
 10
-39.502817
 20
-85.913442
 30
0.0
 11
-39.324247
 21
-86.261686
 31
0.0
  0
LINE
  8
PLAN
  6
CONTINUOUS
 62
    11
  5
636
 10
-39.324247
 20
-86.261686
 30
0.0
 11
-39.132862
 21
-86.603286
 31
0.0
  0
LINE
  8
PLAN
  6
CONTINUOUS
 62
    11
  5
637
 10
-39.132862
 20
-86.603286
 30
0.0
 11
-38.926889
 21
-86.937321
 31
0.0
  0
LINE
  8
PLAN
  6
CONTINUOUS
 62
    11
  5
638
 10
-38.926889
 20
-86.937321
 30
0.0
 11
-38.704554
 21
-87.262872
 31
0.0
  0
LINE
  8
PLAN
  6
CONTINUOUS
 62
    11
  5
639
 10
-38.704554
 20
-87.262872
 30
0.0
 11
-38.464083
 21
-87.579019
 31
0.0
  0
LINE
  8
PLAN
  6
CONTINUOUS
 62
    11
  5
63A
 10
-38.464083
 20
-87.579019
 30
0.0
 11
-38.161477
 21
-87.938267
 31
0.0
  0
LINE
  8
PLAN
  6
CONTINUOUS
 62
    11
  5
63B
 10
-38.161477
 20
-87.938267
 30
0.0
 11
-37.845287
 21
-88.282231
 31
0.0
  0
LINE
  8
PLAN
  6
CONTINUOUS
 62
    11
  5
63C
 10
-37.845287
 20
-88.282231
 30
0.0
 11
-37.516871
 21
-88.612441
 31
0.0
  0
LINE
  8
PLAN
  6
CONTINUOUS
 62
    11
  5
63D
 10
-37.516871
 20
-88.612441
 30
0.0
 11
-37.177588
 21
-88.930426
 31
0.0
  0
LINE
  8
PLAN
  6
CONTINUOUS
 62
    11
  5
63E
 10
-37.177588
 20
-88.930426
 30
0.0
 11
-36.828799
 21
-89.237716
 31
0.0
  0
LINE
  8
PLAN
  6
CONTINUOUS
 62
    11
  5
63F
 10
-36.828799
 20
-89.237716
 30
0.0
 11
-36.471861
 21
-89.53584
 31
0.0
  0
LINE
  8
PLAN
  6
CONTINUOUS
 62
    11
  5
640
 10
-36.471861
 20
-89.53584
 30
0.0
 11
-36.108135
 21
-89.826326
 31
0.0
  0
LINE
  8
PLAN
  6
CONTINUOUS
 62
    11
  5
641
 10
-36.108135
 20
-89.826326
 30
0.0
 11
-35.738979
 21
-90.110704
 31
0.0
  0
LINE
  8
PLAN
  6
CONTINUOUS
 62
    11
  5
642
 10
-35.738979
 20
-90.110704
 30
0.0
 11
-35.365754
 21
-90.390504
 31
0.0
  0
LINE
  8
PLAN
  6
CONTINUOUS
 62
    11
  5
643
 10
-35.365754
 20
-90.390504
 30
0.0
 11
-34.989818
 21
-90.667255
 31
0.0
  0
LINE
  8
PLAN
  6
CONTINUOUS
 62
    11
  5
644
 10
-34.989818
 20
-90.667255
 30
0.0
 11
-34.824682
 21
-90.779485
 31
0.0
  0
LINE
  8
PLAN
  6
CONTINUOUS
 62
    11
  5
645
 10
-34.824682
 20
-90.779485
 30
0.0
 11
-34.654388
 21
-90.879683
 31
0.0
  0
LINE
  8
PLAN
  6
CONTINUOUS
 62
    11
  5
646
 10
-34.654388
 20
-90.879683
 30
0.0
 11
-34.479621
 21
-90.969441
 31
0.0
  0
LINE
  8
PLAN
  6
CONTINUOUS
 62
    11
  5
647
 10
-34.479621
 20
-90.969441
 30
0.0
 11
-34.301062
 21
-91.050354
 31
0.0
  0
LINE
  8
PLAN
  6
CONTINUOUS
 62
    11
  5
648
 10
-34.301062
 20
-91.050354
 30
0.0
 11
-34.119396
 21
-91.124015
 31
0.0
  0
LINE
  8
PLAN
  6
CONTINUOUS
 62
    11
  5
649
 10
-34.119396
 20
-91.124015
 30
0.0
 11
-33.935304
 21
-91.192017
 31
0.0
  0
LINE
  8
PLAN
  6
CONTINUOUS
 62
    11
  5
64A
 10
-33.935304
 20
-91.192017
 30
0.0
 11
-33.749471
 21
-91.255954
 31
0.0
  0
LINE
  8
PLAN
  6
CONTINUOUS
 62
    11
  5
64B
 10
-33.749471
 20
-91.255954
 30
0.0
 11
-33.562578
 21
-91.31742
 31
0.0
  0
LINE
  8
PLAN
  6
CONTINUOUS
 62
    11
  5
64C
 10
-33.562578
 20
-91.31742
 30
0.0
 11
-33.375309
 21
-91.378009
 31
0.0
  0
LINE
  8
PLAN
  6
CONTINUOUS
 62
    11
  5
64D
 10
-33.375309
 20
-91.378009
 30
0.0
 11
-33.188347
 21
-91.439313
 31
0.0
  0
LINE
  8
PLAN
  6
CONTINUOUS
 62
    11
  5
64E
 10
-33.188347
 20
-91.439313
 30
0.0
 11
-33.02434
 21
-91.492093
 31
0.0
  0
LINE
  8
PLAN
  6
CONTINUOUS
 62
    11
  5
64F
 10
-33.02434
 20
-91.492093
 30
0.0
 11
-32.859539
 21
-91.541437
 31
0.0
  0
LINE
  8
PLAN
  6
CONTINUOUS
 62
    11
  5
650
 10
-32.859539
 20
-91.541437
 30
0.0
 11
-32.69397
 21
-91.587451
 31
0.0
  0
LINE
  8
PLAN
  6
CONTINUOUS
 62
    11
  5
651
 10
-32.69397
 20
-91.587451
 30
0.0
 11
-32.527657
 21
-91.630243
 31
0.0
  0
LINE
  8
PLAN
  6
CONTINUOUS
 62
    11
  5
652
 10
-32.527657
 20
-91.630243
 30
0.0
 11
-32.360625
 21
-91.66992
 31
0.0
  0
LINE
  8
PLAN
  6
CONTINUOUS
 62
    11
  5
653
 10
-32.360625
 20
-91.66992
 30
0.0
 11
-32.1929
 21
-91.706589
 31
0.0
  0
LINE
  8
PLAN
  6
CONTINUOUS
 62
    11
  5
654
 10
-32.1929
 20
-91.706589
 30
0.0
 11
-32.024505
 21
-91.740359
 31
0.0
  0
LINE
  8
PLAN
  6
CONTINUOUS
 62
    11
  5
655
 10
-32.024505
 20
-91.740359
 30
0.0
 11
-31.855466
 21
-91.771337
 31
0.0
  0
LINE
  8
PLAN
  6
CONTINUOUS
 62
    11
  5
656
 10
-31.855466
 20
-91.771337
 30
0.0
 11
-31.685807
 21
-91.799629
 31
0.0
  0
ARC
  8
PLAN
  6
CONTINUOUS
 62
    11
  5
657
 10
-29.486012
 20
-93.22034
 30
0.0
 40
2.25
 50
180.0
 51
0.0
  0
LINE
  8
PLAN
  6
CONTINUOUS
 62
    11
  5
658
 10
-31.736012
 20
-93.22034
 30
0.0
 11
-31.736012
 21
-66.37034
 31
0.0
  0
LINE
  8
PLAN
  6
CONTINUOUS
 62
    11
  5
659
 10
-27.236012
 20
-93.22034
 30
0.0
 11
-27.236012
 21
-66.37034
 31
0.0
  0
LINE
  8
PLAN
  6
CONTINUOUS
 62
    11
  5
65A
 10
-68.183223
 20
-66.37034
 30
0.0
 11
-68.183223
 21
-65.57034
 31
0.0
  0
LINE
  8
PLAN
  6
CONTINUOUS
 62
    11
  5
65B
 10
-68.183223
 20
-65.57034
 30
0.0
 11
-31.736012
 21
-64.77034
 31
0.0
  0
LINE
  8
PLAN
  6
CONTINUOUS
 62
    11
  5
65C
 10
-31.736012
 20
-64.77034
 30
0.0
 11
-27.236012
 21
-64.77034
 31
0.0
  0
LINE
  8
PLAN
  6
CONTINUOUS
 62
    11
  5
65D
 10
-27.236012
 20
-64.77034
 30
0.0
 11
7.93257
 21
-65.57034
 31
0.0
  0
LINE
  8
PLAN
  6
CONTINUOUS
 62
    11
  5
65E
 10
7.93257
 20
-65.57034
 30
0.0
 11
7.93257
 21
-66.37034
 31
0.0
  0
LINE
  8
PLAN
  6
CONTINUOUS
 62
     8
  5
65F
 10
-31.738473
 20
-62.773113
 30
0.0
 11
-27.238477
 21
-62.767571
 31
0.0
  0
LINE
  8
PLAN
  6
CONTINUOUS
 62
     8
  5
660
 10
-27.238477
 20
-62.767571
 30
0.0
 11
-27.236013
 21
-64.767569
 31
0.0
  0
LINE
  8
PLAN
  6
CONTINUOUS
 62
     8
  5
661
 10
-27.236013
 20
-64.767569
 30
0.0
 11
-31.73601
 21
-64.773111
 31
0.0
  0
LINE
  8
PLAN
  6
CONTINUOUS
 62
     8
  5
662
 10
-31.73601
 20
-64.773111
 30
0.0
 11
-31.738473
 21
-62.773113
 31
0.0
  0
LINE
  8
PLAN
  6
CONTINUOUS
 62
     8
  5
663
 10
-30.736011
 20
-64.77188
 30
0.0
 11
-30.717538
 21
-79.771868
 31
0.0
  0
LINE
  8
PLAN
  6
CONTINUOUS
 62
     8
  5
664
 10
-30.717538
 20
-79.771868
 30
0.0
 11
-28.21754
 21
-79.768789
 31
0.0
  0
LINE
  8
PLAN
  6
CONTINUOUS
 62
     8
  5
665
 10
-28.21754
 20
-79.768789
 30
0.0
 11
-28.236013
 21
-64.768801
 31
0.0
  0
LINE
  8
WING
  6
CONTINUOUS
 62
     1
  5
666
 10
60.469765
 20
-75.67951
 30
0.0
 11
60.213488
 21
-75.587444
 31
0.0
  0
LINE
  8
WING
  6
CONTINUOUS
 62
     1
  5
667
 10
60.213488
 20
-75.587444
 30
0.0
 11
59.957434
 21
-75.494754
 31
0.0
  0
LINE
  8
WING
  6
CONTINUOUS
 62
     1
  5
668
 10
59.957434
 20
-75.494754
 30
0.0
 11
59.701507
 21
-75.401707
 31
0.0
  0
LINE
  8
WING
  6
CONTINUOUS
 62
     1
  5
669
 10
59.701507
 20
-75.401707
 30
0.0
 11
59.445613
 21
-75.30857
 31
0.0
  0
LINE
  8
WING
  6
CONTINUOUS
 62
     1
  5
66A
 10
59.445613
 20
-75.30857
 30
0.0
 11
59.189654
 21
-75.215613
 31
0.0
  0
LINE
  8
WING
  6
CONTINUOUS
 62
     1
  5
66B
 10
59.189654
 20
-75.215613
 30
0.0
 11
58.933537
 21
-75.123101
 31
0.0
  0
LINE
  8
WING
  6
CONTINUOUS
 62
     1
  5
66C
 10
58.933537
 20
-75.123101
 30
0.0
 11
58.677164
 21
-75.031302
 31
0.0
  0
LINE
  8
WING
  6
CONTINUOUS
 62
     1
  5
66D
 10
58.677164
 20
-75.031302
 30
0.0
 11
58.420441
 21
-74.940484
 31
0.0
  0
LINE
  8
WING
  6
CONTINUOUS
 62
     1
  5
66E
 10
58.420441
 20
-74.940484
 30
0.0
 11
58.163271
 21
-74.850914
 31
0.0
  0
LINE
  8
WING
  6
CONTINUOUS
 62
     1
  5
66F
 10
58.163271
 20
-74.850914
 30
0.0
 11
57.90556
 21
-74.762861
 31
0.0
  0
LINE
  8
WING
  6
CONTINUOUS
 62
     1
  5
670
 10
57.90556
 20
-74.762861
 30
0.0
 11
57.43892
 21
-74.60516
 31
0.0
  0
LINE
  8
WING
  6
CONTINUOUS
 62
     1
  5
671
 10
57.43892
 20
-74.60516
 30
0.0
 11
56.972206
 21
-74.447687
 31
0.0
  0
LINE
  8
WING
  6
CONTINUOUS
 62
     1
  5
672
 10
56.972206
 20
-74.447687
 30
0.0
 11
56.505324
 21
-74.290729
 31
0.0
  0
LINE
  8
WING
  6
CONTINUOUS
 62
     1
  5
673
 10
56.505324
 20
-74.290729
 30
0.0
 11
56.038178
 21
-74.134575
 31
0.0
  0
LINE
  8
WING
  6
CONTINUOUS
 62
     1
  5
674
 10
56.038178
 20
-74.134575
 30
0.0
 11
55.570675
 21
-73.979513
 31
0.0
  0
LINE
  8
WING
  6
CONTINUOUS
 62
     1
  5
675
 10
55.570675
 20
-73.979513
 30
0.0
 11
55.10272
 21
-73.825831
 31
0.0
  0
LINE
  8
WING
  6
CONTINUOUS
 62
     1
  5
676
 10
55.10272
 20
-73.825831
 30
0.0
 11
54.634219
 21
-73.673817
 31
0.0
  0
LINE
  8
WING
  6
CONTINUOUS
 62
     1
  5
677
 10
54.634219
 20
-73.673817
 30
0.0
 11
54.165078
 21
-73.523761
 31
0.0
  0
LINE
  8
WING
  6
CONTINUOUS
 62
     1
  5
678
 10
54.165078
 20
-73.523761
 30
0.0
 11
53.695201
 21
-73.375948
 31
0.0
  0
LINE
  8
WING
  6
CONTINUOUS
 62
     1
  5
679
 10
53.695201
 20
-73.375948
 30
0.0
 11
53.224496
 21
-73.230669
 31
0.0
  0
LINE
  8
WING
  6
CONTINUOUS
 62
     1
  5
67A
 10
53.224496
 20
-73.230669
 30
0.0
 11
52.660966
 21
-73.058611
 31
0.0
  0
LINE
  8
WING
  6
CONTINUOUS
 62
     1
  5
67B
 10
52.660966
 20
-73.058611
 30
0.0
 11
52.097284
 21
-72.88708
 31
0.0
  0
LINE
  8
WING
  6
CONTINUOUS
 62
     1
  5
67C
 10
52.097284
 20
-72.88708
 30
0.0
 11
51.533284
 21
-72.716656
 31
0.0
  0
LINE
  8
WING
  6
CONTINUOUS
 62
     1
  5
67D
 10
51.533284
 20
-72.716656
 30
0.0
 11
50.968799
 21
-72.54792
 31
0.0
  0
LINE
  8
WING
  6
CONTINUOUS
 62
     1
  5
67E
 10
50.968799
 20
-72.54792
 30
0.0
 11
50.403662
 21
-72.381452
 31
0.0
  0
LINE
  8
WING
  6
CONTINUOUS
 62
     1
  5
67F
 10
50.403662
 20
-72.381452
 30
0.0
 11
49.837706
 21
-72.217833
 31
0.0
  0
LINE
  8
WING
  6
CONTINUOUS
 62
     1
  5
680
 10
49.837706
 20
-72.217833
 30
0.0
 11
49.270765
 21
-72.057644
 31
0.0
  0
LINE
  8
WING
  6
CONTINUOUS
 62
     1
  5
681
 10
49.270765
 20
-72.057644
 30
0.0
 11
48.702671
 21
-71.901465
 31
0.0
  0
LINE
  8
WING
  6
CONTINUOUS
 62
     1
  5
682
 10
48.702671
 20
-71.901465
 30
0.0
 11
48.133258
 21
-71.749876
 31
0.0
  0
LINE
  8
WING
  6
CONTINUOUS
 62
     1
  5
683
 10
48.133258
 20
-71.749876
 30
0.0
 11
47.562359
 21
-71.603458
 31
0.0
  0
LINE
  8
WING
  6
CONTINUOUS
 62
     1
  5
684
 10
47.562359
 20
-71.603458
 30
0.0
 11
47.021799
 21
-71.47112
 31
0.0
  0
LINE
  8
WING
  6
CONTINUOUS
 62
     1
  5
685
 10
47.021799
 20
-71.47112
 30
0.0
 11
46.479957
 21
-71.344781
 31
0.0
  0
LINE
  8
WING
  6
CONTINUOUS
 62
     1
  5
686
 10
46.479957
 20
-71.344781
 30
0.0
 11
45.937027
 21
-71.223534
 31
0.0
  0
LINE
  8
WING
  6
CONTINUOUS
 62
     1
  5
687
 10
45.937027
 20
-71.223534
 30
0.0
 11
45.393202
 21
-71.106472
 31
0.0
  0
LINE
  8
WING
  6
CONTINUOUS
 62
     1
  5
688
 10
45.393202
 20
-71.106472
 30
0.0
 11
44.848678
 21
-70.99269
 31
0.0
  0
LINE
  8
WING
  6
CONTINUOUS
 62
     1
  5
689
 10
44.848678
 20
-70.99269
 30
0.0
 11
44.303646
 21
-70.88128
 31
0.0
  0
LINE
  8
WING
  6
CONTINUOUS
 62
     1
  5
68A
 10
44.303646
 20
-70.88128
 30
0.0
 11
43.758301
 21
-70.771337
 31
0.0
  0
LINE
  8
WING
  6
CONTINUOUS
 62
     1
  5
68B
 10
43.758301
 20
-70.771337
 30
0.0
 11
43.212836
 21
-70.661955
 31
0.0
  0
LINE
  8
WING
  6
CONTINUOUS
 62
     1
  5
68C
 10
43.212836
 20
-70.661955
 30
0.0
 11
42.667445
 21
-70.552226
 31
0.0
  0
LINE
  8
WING
  6
CONTINUOUS
 62
     1
  5
68D
 10
42.667445
 20
-70.552226
 30
0.0
 11
42.122322
 21
-70.441245
 31
0.0
  0
LINE
  8
WING
  6
CONTINUOUS
 62
     1
  5
68E
 10
42.122322
 20
-70.441245
 30
0.0
 11
41.623802
 21
-70.338546
 31
0.0
  0
LINE
  8
WING
  6
CONTINUOUS
 62
     1
  5
68F
 10
41.623802
 20
-70.338546
 30
0.0
 11
41.125339
 21
-70.235561
 31
0.0
  0
LINE
  8
WING
  6
CONTINUOUS
 62
     1
  5
690
 10
41.125339
 20
-70.235561
 30
0.0
 11
40.626835
 21
-70.132784
 31
0.0
  0
LINE
  8
WING
  6
CONTINUOUS
 62
     1
  5
691
 10
40.626835
 20
-70.132784
 30
0.0
 11
40.128193
 21
-70.030707
 31
0.0
  0
LINE
  8
WING
  6
CONTINUOUS
 62
     1
  5
692
 10
40.128193
 20
-70.030707
 30
0.0
 11
39.629316
 21
-69.929824
 31
0.0
  0
LINE
  8
WING
  6
CONTINUOUS
 62
     1
  5
693
 10
39.629316
 20
-69.929824
 30
0.0
 11
39.130109
 21
-69.830629
 31
0.0
  0
LINE
  8
WING
  6
CONTINUOUS
 62
     1
  5
694
 10
39.130109
 20
-69.830629
 30
0.0
 11
38.630473
 21
-69.733616
 31
0.0
  0
LINE
  8
WING
  6
CONTINUOUS
 62
     1
  5
695
 10
38.630473
 20
-69.733616
 30
0.0
 11
38.130312
 21
-69.639276
 31
0.0
  0
LINE
  8
WING
  6
CONTINUOUS
 62
     1
  5
696
 10
38.130312
 20
-69.639276
 30
0.0
 11
37.629528
 21
-69.548105
 31
0.0
  0
LINE
  8
WING
  6
CONTINUOUS
 62
     1
  5
697
 10
37.629528
 20
-69.548105
 30
0.0
 11
37.128026
 21
-69.460596
 31
0.0
  0
LINE
  8
WING
  6
CONTINUOUS
 62
     1
  5
698
 10
37.128026
 20
-69.460596
 30
0.0
 11
36.450219
 21
-69.346508
 31
0.0
  0
LINE
  8
WING
  6
CONTINUOUS
 62
     1
  5
699
 10
36.450219
 20
-69.346508
 30
0.0
 11
35.772005
 21
-69.235104
 31
0.0
  0
LINE
  8
WING
  6
CONTINUOUS
 62
     1
  5
69A
 10
35.772005
 20
-69.235104
 30
0.0
 11
35.093396
 21
-69.126318
 31
0.0
  0
LINE
  8
WING
  6
CONTINUOUS
 62
     1
  5
69B
 10
35.093396
 20
-69.126318
 30
0.0
 11
34.4144
 21
-69.020083
 31
0.0
  0
LINE
  8
WING
  6
CONTINUOUS
 62
     1
  5
69C
 10
34.4144
 20
-69.020083
 30
0.0
 11
33.735028
 21
-68.916332
 31
0.0
  0
LINE
  8
WING
  6
CONTINUOUS
 62
     1
  5
69D
 10
33.735028
 20
-68.916332
 30
0.0
 11
33.055291
 21
-68.814999
 31
0.0
  0
LINE
  8
WING
  6
CONTINUOUS
 62
     1
  5
69E
 10
33.055291
 20
-68.814999
 30
0.0
 11
32.375198
 21
-68.716018
 31
0.0
  0
LINE
  8
WING
  6
CONTINUOUS
 62
     1
  5
69F
 10
32.375198
 20
-68.716018
 30
0.0
 11
31.694759
 21
-68.619322
 31
0.0
  0
LINE
  8
WING
  6
CONTINUOUS
 62
     1
  5
6A0
 10
31.694759
 20
-68.619322
 30
0.0
 11
31.013985
 21
-68.524844
 31
0.0
  0
LINE
  8
WING
  6
CONTINUOUS
 62
     1
  5
6A1
 10
31.013985
 20
-68.524844
 30
0.0
 11
30.332885
 21
-68.432518
 31
0.0
  0
LINE
  8
WING
  6
CONTINUOUS
 62
     1
  5
6A2
 10
30.332885
 20
-68.432518
 30
0.0
 11
29.435898
 21
-68.314008
 31
0.0
  0
LINE
  8
WING
  6
CONTINUOUS
 62
     1
  5
6A3
 10
29.435898
 20
-68.314008
 30
0.0
 11
28.538541
 21
-68.198561
 31
0.0
  0
LINE
  8
WING
  6
CONTINUOUS
 62
     1
  5
6A4
 10
28.538541
 20
-68.198561
 30
0.0
 11
27.640853
 21
-68.085858
 31
0.0
  0
LINE
  8
WING
  6
CONTINUOUS
 62
     1
  5
6A5
 10
27.640853
 20
-68.085858
 30
0.0
 11
26.742872
 21
-67.975578
 31
0.0
  0
LINE
  8
WING
  6
CONTINUOUS
 62
     1
  5
6A6
 10
26.742872
 20
-67.975578
 30
0.0
 11
25.844636
 21
-67.867401
 31
0.0
  0
LINE
  8
WING
  6
CONTINUOUS
 62
     1
  5
6A7
 10
25.844636
 20
-67.867401
 30
0.0
 11
24.946185
 21
-67.761006
 31
0.0
  0
LINE
  8
WING
  6
CONTINUOUS
 62
     1
  5
6A8
 10
24.946185
 20
-67.761006
 30
0.0
 11
24.047558
 21
-67.656074
 31
0.0
  0
LINE
  8
WING
  6
CONTINUOUS
 62
     1
  5
6A9
 10
24.047558
 20
-67.656074
 30
0.0
 11
23.148792
 21
-67.552284
 31
0.0
  0
LINE
  8
WING
  6
CONTINUOUS
 62
     1
  5
6AA
 10
23.148792
 20
-67.552284
 30
0.0
 11
22.249927
 21
-67.449316
 31
0.0
  0
LINE
  8
WING
  6
CONTINUOUS
 62
     1
  5
6AB
 10
22.249927
 20
-67.449316
 30
0.0
 11
21.351001
 21
-67.346849
 31
0.0
  0
LINE
  8
WING
  6
CONTINUOUS
 62
     1
  5
6AC
 10
21.351001
 20
-67.346849
 30
0.0
 11
20.69717
 21
-67.270493
 31
0.0
  0
LINE
  8
WING
  6
CONTINUOUS
 62
     1
  5
6AD
 10
20.69717
 20
-67.270493
 30
0.0
 11
20.04362
 21
-67.191441
 31
0.0
  0
LINE
  8
WING
  6
CONTINUOUS
 62
     1
  5
6AE
 10
20.04362
 20
-67.191441
 30
0.0
 11
19.390174
 21
-67.111385
 31
0.0
  0
LINE
  8
WING
  6
CONTINUOUS
 62
     1
  5
6AF
 10
19.390174
 20
-67.111385
 30
0.0
 11
18.736657
 21
-67.032017
 31
0.0
  0
LINE
  8
WING
  6
CONTINUOUS
 62
     1
  5
6B0
 10
18.736657
 20
-67.032017
 30
0.0
 11
18.082892
 21
-66.955028
 31
0.0
  0
LINE
  8
WING
  6
CONTINUOUS
 62
     1
  5
6B1
 10
18.082892
 20
-66.955028
 30
0.0
 11
17.428703
 21
-66.882109
 31
0.0
  0
LINE
  8
WING
  6
CONTINUOUS
 62
     1
  5
6B2
 10
17.428703
 20
-66.882109
 30
0.0
 11
16.773914
 21
-66.814951
 31
0.0
  0
LINE
  8
WING
  6
CONTINUOUS
 62
     1
  5
6B3
 10
16.773914
 20
-66.814951
 30
0.0
 11
16.118348
 21
-66.755246
 31
0.0
  0
LINE
  8
WING
  6
CONTINUOUS
 62
     1
  5
6B4
 10
16.118348
 20
-66.755246
 30
0.0
 11
15.461831
 21
-66.704684
 31
0.0
  0
LINE
  8
WING
  6
CONTINUOUS
 62
     1
  5
6B5
 10
15.461831
 20
-66.704684
 30
0.0
 11
14.804184
 21
-66.664958
 31
0.0
  0
LINE
  8
WING
  6
CONTINUOUS
 62
     1
  5
6B6
 10
14.804184
 20
-66.664958
 30
0.0
 11
13.415698
 21
-66.60036
 31
0.0
  0
LINE
  8
WING
  6
CONTINUOUS
 62
     1
  5
6B7
 10
13.415698
 20
-66.60036
 30
0.0
 11
12.026902
 21
-66.547519
 31
0.0
  0
LINE
  8
WING
  6
CONTINUOUS
 62
     1
  5
6B8
 10
12.026902
 20
-66.547519
 30
0.0
 11
10.637851
 21
-66.504361
 31
0.0
  0
LINE
  8
WING
  6
CONTINUOUS
 62
     1
  5
6B9
 10
10.637851
 20
-66.504361
 30
0.0
 11
9.248599
 21
-66.468811
 31
0.0
  0
LINE
  8
WING
  6
CONTINUOUS
 62
     1
  5
6BA
 10
9.248599
 20
-66.468811
 30
0.0
 11
7.859202
 21
-66.438794
 31
0.0
  0
LINE
  8
WING
  6
CONTINUOUS
 62
     1
  5
6BB
 10
7.859202
 20
-66.438794
 30
0.0
 11
6.469714
 21
-66.412235
 31
0.0
  0
LINE
  8
WING
  6
CONTINUOUS
 62
     1
  5
6BC
 10
6.469714
 20
-66.412235
 30
0.0
 11
5.080189
 21
-66.38706
 31
0.0
  0
LINE
  8
WING
  6
CONTINUOUS
 62
     1
  5
6BD
 10
5.080189
 20
-66.38706
 30
0.0
 11
3.690682
 21
-66.361193
 31
0.0
  0
LINE
  8
PLAN
  6
CONTINUOUS
 62
    11
  5
6BE
 10
7.93257
 20
-66.37034
 30
0.0
 11
-68.183223
 21
-66.37034
 31
0.0
  0
LINE
  8
WING
  6
CONTINUOUS
 62
     1
  5
6BF
 10
-29.943716
 20
65.031731
 30
0.0
 11
9.305557
 21
65.031731
 31
0.0
  0
LINE
  8
WING
  6
CONTINUOUS
 62
     1
  5
6C0
 10
-30.062845
 20
35.951492
 30
0.0
 11
23.237568
 21
35.951492
 31
0.0
  0
LINE
  8
WING
  6
CONTINUOUS
 62
     1
  5
6C1
 10
23.237568
 20
35.951492
 30
0.0
 11
24.290488
 21
35.984894
 31
0.0
  0
LINE
  8
WING
  6
CONTINUOUS
 62
     1
  5
6C2
 10
24.290488
 20
35.984894
 30
0.0
 11
25.343438
 21
36.017348
 31
0.0
  0
LINE
  8
WING
  6
CONTINUOUS
 62
     1
  5
6C3
 10
25.343438
 20
36.017348
 30
0.0
 11
26.396407
 21
36.04926
 31
0.0
  0
LINE
  8
WING
  6
CONTINUOUS
 62
     1
  5
6C4
 10
26.396407
 20
36.04926
 30
0.0
 11
27.449379
 21
36.081037
 31
0.0
  0
LINE
  8
WING
  6
CONTINUOUS
 62
     1
  5
6C5
 10
27.449379
 20
36.081037
 30
0.0
 11
28.502343
 21
36.113085
 31
0.0
  0
LINE
  8
WING
  6
CONTINUOUS
 62
     1
  5
6C6
 10
28.502343
 20
36.113085
 30
0.0
 11
29.555285
 21
36.14581
 31
0.0
  0
LINE
  8
WING
  6
CONTINUOUS
 62
     1
  5
6C7
 10
29.555285
 20
36.14581
 30
0.0
 11
30.608192
 21
36.179619
 31
0.0
  0
LINE
  8
WING
  6
CONTINUOUS
 62
     1
  5
6C8
 10
30.608192
 20
36.179619
 30
0.0
 11
31.66105
 21
36.214918
 31
0.0
  0
LINE
  8
WING
  6
CONTINUOUS
 62
     1
  5
6C9
 10
31.66105
 20
36.214918
 30
0.0
 11
32.713848
 21
36.252113
 31
0.0
  0
LINE
  8
WING
  6
CONTINUOUS
 62
     1
  5
6CA
 10
32.713848
 20
36.252113
 30
0.0
 11
33.766571
 21
36.291611
 31
0.0
  0
LINE
  8
WING
  6
CONTINUOUS
 62
     1
  5
6CB
 10
33.766571
 20
36.291611
 30
0.0
 11
34.469718
 21
36.318907
 31
0.0
  0
LINE
  8
WING
  6
CONTINUOUS
 62
     1
  5
6CC
 10
34.469718
 20
36.318907
 30
0.0
 11
35.172847
 21
36.346587
 31
0.0
  0
LINE
  8
WING
  6
CONTINUOUS
 62
     1
  5
6CD
 10
35.172847
 20
36.346587
 30
0.0
 11
35.875937
 21
36.375066
 31
0.0
  0
LINE
  8
WING
  6
CONTINUOUS
 62
     1
  5
6CE
 10
35.875937
 20
36.375066
 30
0.0
 11
36.578968
 21
36.40476
 31
0.0
  0
LINE
  8
WING
  6
CONTINUOUS
 62
     1
  5
6CF
 10
36.578968
 20
36.40476
 30
0.0
 11
37.28192
 21
36.436085
 31
0.0
  0
LINE
  8
WING
  6
CONTINUOUS
 62
     1
  5
6D0
 10
37.28192
 20
36.436085
 30
0.0
 11
37.984773
 21
36.469458
 31
0.0
  0
LINE
  8
WING
  6
CONTINUOUS
 62
     1
  5
6D1
 10
37.984773
 20
36.469458
 30
0.0
 11
38.687507
 21
36.505292
 31
0.0
  0
LINE
  8
WING
  6
CONTINUOUS
 62
     1
  5
6D2
 10
38.687507
 20
36.505292
 30
0.0
 11
39.390102
 21
36.544006
 31
0.0
  0
LINE
  8
WING
  6
CONTINUOUS
 62
     1
  5
6D3
 10
39.390102
 20
36.544006
 30
0.0
 11
40.092537
 21
36.586013
 31
0.0
  0
LINE
  8
WING
  6
CONTINUOUS
 62
     1
  5
6D4
 10
40.092537
 20
36.586013
 30
0.0
 11
40.794793
 21
36.631731
 31
0.0
  0
LINE
  8
WING
  6
CONTINUOUS
 62
     1
  5
6D5
 10
40.794793
 20
36.631731
 30
0.0
 11
41.344429
 21
36.67101
 31
0.0
  0
LINE
  8
WING
  6
CONTINUOUS
 62
     1
  5
6D6
 10
41.344429
 20
36.67101
 30
0.0
 11
41.893731
 21
36.71388
 31
0.0
  0
LINE
  8
WING
  6
CONTINUOUS
 62
     1
  5
6D7
 10
41.893731
 20
36.71388
 30
0.0
 11
42.442733
 21
36.759974
 31
0.0
  0
LINE
  8
WING
  6
CONTINUOUS
 62
     1
  5
6D8
 10
42.442733
 20
36.759974
 30
0.0
 11
42.99147
 21
36.808923
 31
0.0
  0
LINE
  8
WING
  6
CONTINUOUS
 62
     1
  5
6D9
 10
42.99147
 20
36.808923
 30
0.0
 11
43.539975
 21
36.860357
 31
0.0
  0
LINE
  8
WING
  6
CONTINUOUS
 62
     1
  5
6DA
 10
43.539975
 20
36.860357
 30
0.0
 11
44.088284
 21
36.913909
 31
0.0
  0
LINE
  8
WING
  6
CONTINUOUS
 62
     1
  5
6DB
 10
44.088284
 20
36.913909
 30
0.0
 11
44.63643
 21
36.969208
 31
0.0
  0
LINE
  8
WING
  6
CONTINUOUS
 62
     1
  5
6DC
 10
44.63643
 20
36.969208
 30
0.0
 11
45.184447
 21
37.025888
 31
0.0
  0
LINE
  8
WING
  6
CONTINUOUS
 62
     1
  5
6DD
 10
45.184447
 20
37.025888
 30
0.0
 11
45.732371
 21
37.083578
 31
0.0
  0
LINE
  8
WING
  6
CONTINUOUS
 62
     1
  5
6DE
 10
45.732371
 20
37.083578
 30
0.0
 11
46.280235
 21
37.141911
 31
0.0
  0
LINE
  8
WING
  6
CONTINUOUS
 62
     1
  5
6DF
 10
46.280235
 20
37.141911
 30
0.0
 11
46.84678
 21
37.202792
 31
0.0
  0
LINE
  8
WING
  6
CONTINUOUS
 62
     1
  5
6E0
 10
46.84678
 20
37.202792
 30
0.0
 11
47.41322
 21
37.264548
 31
0.0
  0
LINE
  8
WING
  6
CONTINUOUS
 62
     1
  5
6E1
 10
47.41322
 20
37.264548
 30
0.0
 11
47.979522
 21
37.327446
 31
0.0
  0
LINE
  8
WING
  6
CONTINUOUS
 62
     1
  5
6E2
 10
47.979522
 20
37.327446
 30
0.0
 11
48.545655
 21
37.391754
 31
0.0
  0
LINE
  8
WING
  6
CONTINUOUS
 62
     1
  5
6E3
 10
48.545655
 20
37.391754
 30
0.0
 11
49.111587
 21
37.457737
 31
0.0
  0
LINE
  8
WING
  6
CONTINUOUS
 62
     1
  5
6E4
 10
49.111587
 20
37.457737
 30
0.0
 11
49.677285
 21
37.525664
 31
0.0
  0
LINE
  8
WING
  6
CONTINUOUS
 62
     1
  5
6E5
 10
49.677285
 20
37.525664
 30
0.0
 11
50.242717
 21
37.595802
 31
0.0
  0
LINE
  8
WING
  6
CONTINUOUS
 62
     1
  5
6E6
 10
50.242717
 20
37.595802
 30
0.0
 11
50.807851
 21
37.668417
 31
0.0
  0
LINE
  8
WING
  6
CONTINUOUS
 62
     1
  5
6E7
 10
50.807851
 20
37.668417
 30
0.0
 11
51.372655
 21
37.743778
 31
0.0
  0
LINE
  8
WING
  6
CONTINUOUS
 62
     1
  5
6E8
 10
51.372655
 20
37.743778
 30
0.0
 11
51.937096
 21
37.82215
 31
0.0
  0
LINE
  8
WING
  6
CONTINUOUS
 62
     1
  5
6E9
 10
51.937096
 20
37.82215
 30
0.0
 11
52.213316
 21
37.8627
 31
0.0
  0
LINE
  8
WING
  6
CONTINUOUS
 62
     1
  5
6EA
 10
52.213316
 20
37.8627
 30
0.0
 11
52.489042
 21
37.905902
 31
0.0
  0
LINE
  8
WING
  6
CONTINUOUS
 62
     1
  5
6EB
 10
52.489042
 20
37.905902
 30
0.0
 11
52.764297
 21
37.951634
 31
0.0
  0
LINE
  8
WING
  6
CONTINUOUS
 62
     1
  5
6EC
 10
52.764297
 20
37.951634
 30
0.0
 11
53.039104
 21
37.999775
 31
0.0
  0
LINE
  8
WING
  6
CONTINUOUS
 62
     1
  5
6ED
 10
53.039104
 20
37.999775
 30
0.0
 11
53.313487
 21
38.0502
 31
0.0
  0
LINE
  8
WING
  6
CONTINUOUS
 62
     1
  5
6EE
 10
53.313487
 20
38.0502
 30
0.0
 11
53.587466
 21
38.102789
 31
0.0
  0
LINE
  8
WING
  6
CONTINUOUS
 62
     1
  5
6EF
 10
53.587466
 20
38.102789
 30
0.0
 11
53.861067
 21
38.157418
 31
0.0
  0
LINE
  8
WING
  6
CONTINUOUS
 62
     1
  5
6F0
 10
53.861067
 20
38.157418
 30
0.0
 11
54.13431
 21
38.213967
 31
0.0
  0
LINE
  8
WING
  6
CONTINUOUS
 62
     1
  5
6F1
 10
54.13431
 20
38.213967
 30
0.0
 11
54.407219
 21
38.272311
 31
0.0
  0
LINE
  8
WING
  6
CONTINUOUS
 62
     1
  5
6F2
 10
54.407219
 20
38.272311
 30
0.0
 11
54.679817
 21
38.33233
 31
0.0
  0
LINE
  8
WING
  6
CONTINUOUS
 62
     1
  5
6F3
 10
54.679817
 20
38.33233
 30
0.0
 11
55.093576
 21
38.424887
 31
0.0
  0
LINE
  8
WING
  6
CONTINUOUS
 62
     1
  5
6F4
 10
55.093576
 20
38.424887
 30
0.0
 11
55.507156
 21
38.518168
 31
0.0
  0
LINE
  8
WING
  6
CONTINUOUS
 62
     1
  5
6F5
 10
55.507156
 20
38.518168
 30
0.0
 11
55.920427
 21
38.612691
 31
0.0
  0
LINE
  8
WING
  6
CONTINUOUS
 62
     1
  5
6F6
 10
55.920427
 20
38.612691
 30
0.0
 11
56.333262
 21
38.708976
 31
0.0
  0
LINE
  8
WING
  6
CONTINUOUS
 62
     1
  5
6F7
 10
56.333262
 20
38.708976
 30
0.0
 11
56.745531
 21
38.80754
 31
0.0
  0
LINE
  8
WING
  6
CONTINUOUS
 62
     1
  5
6F8
 10
56.745531
 20
38.80754
 30
0.0
 11
57.157106
 21
38.908901
 31
0.0
  0
LINE
  8
WING
  6
CONTINUOUS
 62
     1
  5
6F9
 10
57.157106
 20
38.908901
 30
0.0
 11
57.567859
 21
39.013578
 31
0.0
  0
LINE
  8
WING
  6
CONTINUOUS
 62
     1
  5
6FA
 10
57.567859
 20
39.013578
 30
0.0
 11
57.977661
 21
39.12209
 31
0.0
  0
LINE
  8
WING
  6
CONTINUOUS
 62
     1
  5
6FB
 10
57.977661
 20
39.12209
 30
0.0
 11
58.386384
 21
39.234954
 31
0.0
  0
LINE
  8
WING
  6
CONTINUOUS
 62
     1
  5
6FC
 10
58.386384
 20
39.234954
 30
0.0
 11
58.793898
 21
39.352689
 31
0.0
  0
LINE
  8
WING
  6
CONTINUOUS
 62
     1
  5
6FD
 10
58.793898
 20
39.352689
 30
0.0
 11
58.997856
 21
39.415943
 31
0.0
  0
LINE
  8
WING
  6
CONTINUOUS
 62
     1
  5
6FE
 10
58.997856
 20
39.415943
 30
0.0
 11
59.199893
 21
39.484057
 31
0.0
  0
LINE
  8
WING
  6
CONTINUOUS
 62
     1
  5
6FF
 10
59.199893
 20
39.484057
 30
0.0
 11
59.400238
 21
39.556456
 31
0.0
  0
LINE
  8
WING
  6
CONTINUOUS
 62
     1
  5
700
 10
59.400238
 20
39.556456
 30
0.0
 11
59.599118
 21
39.632566
 31
0.0
  0
LINE
  8
WING
  6
CONTINUOUS
 62
     1
  5
701
 10
59.599118
 20
39.632566
 30
0.0
 11
59.796758
 21
39.711811
 31
0.0
  0
LINE
  8
WING
  6
CONTINUOUS
 62
     1
  5
702
 10
59.796758
 20
39.711811
 30
0.0
 11
59.993387
 21
39.793618
 31
0.0
  0
LINE
  8
WING
  6
CONTINUOUS
 62
     1
  5
703
 10
59.993387
 20
39.793618
 30
0.0
 11
60.189231
 21
39.877411
 31
0.0
  0
LINE
  8
WING
  6
CONTINUOUS
 62
     1
  5
704
 10
60.189231
 20
39.877411
 30
0.0
 11
60.384518
 21
39.962616
 31
0.0
  0
LINE
  8
WING
  6
CONTINUOUS
 62
     1
  5
705
 10
60.384518
 20
39.962616
 30
0.0
 11
60.579474
 21
40.048659
 31
0.0
  0
LINE
  8
WING
  6
CONTINUOUS
 62
     1
  5
706
 10
60.579474
 20
40.048659
 30
0.0
 11
60.774325
 21
40.134965
 31
0.0
  0
LINE
  8
WING
  6
CONTINUOUS
 62
     1
  5
707
 10
60.774325
 20
40.134965
 30
0.0
 11
60.797239
 21
40.146153
 31
0.0
  0
LINE
  8
WING
  6
CONTINUOUS
 62
     1
  5
708
 10
60.797239
 20
40.146153
 30
0.0
 11
60.81874
 21
40.158765
 31
0.0
  0
LINE
  8
WING
  6
CONTINUOUS
 62
     1
  5
709
 10
60.81874
 20
40.158765
 30
0.0
 11
60.838878
 21
40.172751
 31
0.0
  0
LINE
  8
WING
  6
CONTINUOUS
 62
     1
  5
70A
 10
60.838878
 20
40.172751
 30
0.0
 11
60.857701
 21
40.188063
 31
0.0
  0
LINE
  8
WING
  6
CONTINUOUS
 62
     1
  5
70B
 10
60.857701
 20
40.188063
 30
0.0
 11
60.875257
 21
40.204651
 31
0.0
  0
LINE
  8
WING
  6
CONTINUOUS
 62
     1
  5
70C
 10
60.875257
 20
40.204651
 30
0.0
 11
60.891596
 21
40.222467
 31
0.0
  0
LINE
  8
WING
  6
CONTINUOUS
 62
     1
  5
70D
 10
60.891596
 20
40.222467
 30
0.0
 11
60.906765
 21
40.241461
 31
0.0
  0
LINE
  8
WING
  6
CONTINUOUS
 62
     1
  5
70E
 10
60.906765
 20
40.241461
 30
0.0
 11
60.920814
 21
40.261585
 31
0.0
  0
LINE
  8
WING
  6
CONTINUOUS
 62
     1
  5
70F
 10
60.920814
 20
40.261585
 30
0.0
 11
60.933792
 21
40.282789
 31
0.0
  0
LINE
  8
WING
  6
CONTINUOUS
 62
     1
  5
710
 10
60.933792
 20
40.282789
 30
0.0
 11
60.945746
 21
40.305024
 31
0.0
  0
LINE
  8
WING
  6
CONTINUOUS
 62
     1
  5
711
 10
60.945746
 20
40.305024
 30
0.0
 11
60.988162
 21
40.386775
 31
0.0
  0
LINE
  8
WING
  6
CONTINUOUS
 62
     1
  5
712
 10
60.988162
 20
40.386775
 30
0.0
 11
61.031832
 21
40.468021
 31
0.0
  0
LINE
  8
WING
  6
CONTINUOUS
 62
     1
  5
713
 10
61.031832
 20
40.468021
 30
0.0
 11
61.075608
 21
40.549224
 31
0.0
  0
LINE
  8
WING
  6
CONTINUOUS
 62
     1
  5
714
 10
61.075608
 20
40.549224
 30
0.0
 11
61.118342
 21
40.630847
 31
0.0
  0
LINE
  8
WING
  6
CONTINUOUS
 62
     1
  5
715
 10
61.118342
 20
40.630847
 30
0.0
 11
61.158885
 21
40.713353
 31
0.0
  0
LINE
  8
WING
  6
CONTINUOUS
 62
     1
  5
716
 10
61.158885
 20
40.713353
 30
0.0
 11
61.196092
 21
40.797204
 31
0.0
  0
LINE
  8
WING
  6
CONTINUOUS
 62
     1
  5
717
 10
61.196092
 20
40.797204
 30
0.0
 11
61.228812
 21
40.882865
 31
0.0
  0
LINE
  8
WING
  6
CONTINUOUS
 62
     1
  5
718
 10
61.228812
 20
40.882865
 30
0.0
 11
61.2559
 21
40.970796
 31
0.0
  0
LINE
  8
WING
  6
CONTINUOUS
 62
     1
  5
719
 10
61.2559
 20
40.970796
 30
0.0
 11
61.276207
 21
41.061462
 31
0.0
  0
LINE
  8
WING
  6
CONTINUOUS
 62
     1
  5
71A
 10
61.276207
 20
41.061462
 30
0.0
 11
61.288586
 21
41.155324
 31
0.0
  0
LINE
  8
WING
  6
CONTINUOUS
 62
     1
  5
71B
 10
61.288586
 20
41.155324
 30
0.0
 11
61.295401
 21
41.277816
 31
0.0
  0
LINE
  8
WING
  6
CONTINUOUS
 62
     1
  5
71C
 10
61.295401
 20
41.277816
 30
0.0
 11
61.295527
 21
41.399344
 31
0.0
  0
LINE
  8
WING
  6
CONTINUOUS
 62
     1
  5
71D
 10
61.295527
 20
41.399344
 30
0.0
 11
61.289474
 21
41.519983
 31
0.0
  0
LINE
  8
WING
  6
CONTINUOUS
 62
     1
  5
71E
 10
61.289474
 20
41.519983
 30
0.0
 11
61.277756
 21
41.639806
 31
0.0
  0
LINE
  8
WING
  6
CONTINUOUS
 62
     1
  5
71F
 10
61.277756
 20
41.639806
 30
0.0
 11
61.260885
 21
41.758887
 31
0.0
  0
LINE
  8
WING
  6
CONTINUOUS
 62
     1
  5
720
 10
61.260885
 20
41.758887
 30
0.0
 11
61.239373
 21
41.877299
 31
0.0
  0
LINE
  8
WING
  6
CONTINUOUS
 62
     1
  5
721
 10
61.239373
 20
41.877299
 30
0.0
 11
61.213733
 21
41.995118
 31
0.0
  0
LINE
  8
WING
  6
CONTINUOUS
 62
     1
  5
722
 10
61.213733
 20
41.995118
 30
0.0
 11
61.184476
 21
42.112415
 31
0.0
  0
LINE
  8
WING
  6
CONTINUOUS
 62
     1
  5
723
 10
61.184476
 20
42.112415
 30
0.0
 11
61.152116
 21
42.229266
 31
0.0
  0
LINE
  8
WING
  6
CONTINUOUS
 62
     1
  5
724
 10
61.152116
 20
42.229266
 30
0.0
 11
61.117166
 21
42.345743
 31
0.0
  0
LINE
  8
WING
  6
CONTINUOUS
 62
     1
  5
725
 10
61.117166
 20
42.345743
 30
0.0
 11
61.079838
 21
42.454884
 31
0.0
  0
LINE
  8
WING
  6
CONTINUOUS
 62
     1
  5
726
 10
61.079838
 20
42.454884
 30
0.0
 11
61.037072
 21
42.561285
 31
0.0
  0
LINE
  8
WING
  6
CONTINUOUS
 62
     1
  5
727
 10
61.037072
 20
42.561285
 30
0.0
 11
60.989732
 21
42.66538
 31
0.0
  0
LINE
  8
WING
  6
CONTINUOUS
 62
     1
  5
728
 10
60.989732
 20
42.66538
 30
0.0
 11
60.938683
 21
42.767606
 31
0.0
  0
LINE
  8
WING
  6
CONTINUOUS
 62
     1
  5
729
 10
60.938683
 20
42.767606
 30
0.0
 11
60.884789
 21
42.868398
 31
0.0
  0
LINE
  8
WING
  6
CONTINUOUS
 62
     1
  5
72A
 10
60.884789
 20
42.868398
 30
0.0
 11
60.828915
 21
42.968193
 31
0.0
  0
LINE
  8
WING
  6
CONTINUOUS
 62
     1
  5
72B
 10
60.828915
 20
42.968193
 30
0.0
 11
60.771925
 21
43.067424
 31
0.0
  0
LINE
  8
WING
  6
CONTINUOUS
 62
     1
  5
72C
 10
60.771925
 20
43.067424
 30
0.0
 11
60.714684
 21
43.166529
 31
0.0
  0
LINE
  8
WING
  6
CONTINUOUS
 62
     1
  5
72D
 10
60.714684
 20
43.166529
 30
0.0
 11
60.658056
 21
43.265943
 31
0.0
  0
LINE
  8
WING
  6
CONTINUOUS
 62
     1
  5
72E
 10
60.658056
 20
43.265943
 30
0.0
 11
60.602905
 21
43.366102
 31
0.0
  0
LINE
  8
WING
  6
CONTINUOUS
 62
     1
  5
72F
 10
60.602905
 20
43.366102
 30
0.0
 11
60.520071
 21
43.520767
 31
0.0
  0
LINE
  8
WING
  6
CONTINUOUS
 62
     1
  5
730
 10
60.520071
 20
43.520767
 30
0.0
 11
60.437495
 21
43.675575
 31
0.0
  0
LINE
  8
WING
  6
CONTINUOUS
 62
     1
  5
731
 10
60.437495
 20
43.675575
 30
0.0
 11
60.354839
 21
43.83034
 31
0.0
  0
LINE
  8
WING
  6
CONTINUOUS
 62
     1
  5
732
 10
60.354839
 20
43.83034
 30
0.0
 11
60.271769
 21
43.984872
 31
0.0
  0
LINE
  8
WING
  6
CONTINUOUS
 62
     1
  5
733
 10
60.271769
 20
43.984872
 30
0.0
 11
60.187948
 21
44.138983
 31
0.0
  0
LINE
  8
WING
  6
CONTINUOUS
 62
     1
  5
734
 10
60.187948
 20
44.138983
 30
0.0
 11
60.103039
 21
44.292486
 31
0.0
  0
LINE
  8
WING
  6
CONTINUOUS
 62
     1
  5
735
 10
60.103039
 20
44.292486
 30
0.0
 11
60.016706
 21
44.445191
 31
0.0
  0
LINE
  8
WING
  6
CONTINUOUS
 62
     1
  5
736
 10
60.016706
 20
44.445191
 30
0.0
 11
59.928614
 21
44.596911
 31
0.0
  0
LINE
  8
WING
  6
CONTINUOUS
 62
     1
  5
737
 10
59.928614
 20
44.596911
 30
0.0
 11
59.838426
 21
44.747457
 31
0.0
  0
LINE
  8
WING
  6
CONTINUOUS
 62
     1
  5
738
 10
59.838426
 20
44.747457
 30
0.0
 11
59.745805
 21
44.896641
 31
0.0
  0
LINE
  8
WING
  6
CONTINUOUS
 62
     1
  5
739
 10
59.745805
 20
44.896641
 30
0.0
 11
59.640047
 21
45.061117
 31
0.0
  0
LINE
  8
WING
  6
CONTINUOUS
 62
     1
  5
73A
 10
59.640047
 20
45.061117
 30
0.0
 11
59.532158
 21
45.224096
 31
0.0
  0
LINE
  8
WING
  6
CONTINUOUS
 62
     1
  5
73B
 10
59.532158
 20
45.224096
 30
0.0
 11
59.422389
 21
45.385754
 31
0.0
  0
LINE
  8
WING
  6
CONTINUOUS
 62
     1
  5
73C
 10
59.422389
 20
45.385754
 30
0.0
 11
59.310991
 21
45.546268
 31
0.0
  0
LINE
  8
WING
  6
CONTINUOUS
 62
     1
  5
73D
 10
59.310991
 20
45.546268
 30
0.0
 11
59.198217
 21
45.705813
 31
0.0
  0
LINE
  8
WING
  6
CONTINUOUS
 62
     1
  5
73E
 10
59.198217
 20
45.705813
 30
0.0
 11
59.084316
 21
45.864568
 31
0.0
  0
LINE
  8
WING
  6
CONTINUOUS
 62
     1
  5
73F
 10
59.084316
 20
45.864568
 30
0.0
 11
58.969541
 21
46.022707
 31
0.0
  0
LINE
  8
WING
  6
CONTINUOUS
 62
     1
  5
740
 10
58.969541
 20
46.022707
 30
0.0
 11
58.854142
 21
46.180409
 31
0.0
  0
LINE
  8
WING
  6
CONTINUOUS
 62
     1
  5
741
 10
58.738371
 20
46.337849
 30
0.0
 11
58.622478
 21
46.495204
 31
0.0
  0
LINE
  8
WING
  6
CONTINUOUS
 62
     1
  5
742
 10
58.622478
 20
46.495204
 30
0.0
 11
58.42152
 21
46.770888
 31
0.0
  0
LINE
  8
WING
  6
CONTINUOUS
 62
     1
  5
743
 10
58.42152
 20
46.770888
 30
0.0
 11
58.222428
 21
47.047983
 31
0.0
  0
LINE
  8
WING
  6
CONTINUOUS
 62
     1
  5
744
 10
58.222428
 20
47.047983
 30
0.0
 11
58.024108
 21
47.32566
 31
0.0
  0
LINE
  8
WING
  6
CONTINUOUS
 62
     1
  5
745
 10
58.024108
 20
47.32566
 30
0.0
 11
57.825464
 21
47.603093
 31
0.0
  0
LINE
  8
WING
  6
CONTINUOUS
 62
     1
  5
746
 10
57.825464
 20
47.603093
 30
0.0
 11
57.625399
 21
47.879453
 31
0.0
  0
LINE
  8
WING
  6
CONTINUOUS
 62
     1
  5
747
 10
57.625399
 20
47.879453
 30
0.0
 11
57.42282
 21
48.153911
 31
0.0
  0
LINE
  8
WING
  6
CONTINUOUS
 62
     1
  5
748
 10
57.42282
 20
48.153911
 30
0.0
 11
57.216629
 21
48.425639
 31
0.0
  0
LINE
  8
WING
  6
CONTINUOUS
 62
     1
  5
749
 10
57.216629
 20
48.425639
 30
0.0
 11
57.005732
 21
48.693809
 31
0.0
  0
LINE
  8
WING
  6
CONTINUOUS
 62
     1
  5
74A
 10
57.005732
 20
48.693809
 30
0.0
 11
56.789034
 21
48.957593
 31
0.0
  0
LINE
  8
WING
  6
CONTINUOUS
 62
     1
  5
74B
 10
56.789034
 20
48.957593
 30
0.0
 11
56.565438
 21
49.216162
 31
0.0
  0
LINE
  8
WING
  6
CONTINUOUS
 62
     1
  5
74C
 10
56.565438
 20
49.216162
 30
0.0
 11
56.274162
 21
49.539689
 31
0.0
  0
LINE
  8
WING
  6
CONTINUOUS
 62
     1
  5
74D
 10
56.274162
 20
49.539689
 30
0.0
 11
55.979142
 21
49.85944
 31
0.0
  0
LINE
  8
WING
  6
CONTINUOUS
 62
     1
  5
74E
 10
55.979142
 20
49.85944
 30
0.0
 11
55.680341
 21
50.175382
 31
0.0
  0
LINE
  8
WING
  6
CONTINUOUS
 62
     1
  5
74F
 10
55.680341
 20
50.175382
 30
0.0
 11
55.377725
 21
50.487476
 31
0.0
  0
LINE
  8
WING
  6
CONTINUOUS
 62
     1
  5
750
 10
55.377725
 20
50.487476
 30
0.0
 11
55.071256
 21
50.795688
 31
0.0
  0
LINE
  8
WING
  6
CONTINUOUS
 62
     1
  5
751
 10
55.071256
 20
50.795688
 30
0.0
 11
54.760899
 21
51.099981
 31
0.0
  0
LINE
  8
WING
  6
CONTINUOUS
 62
     1
  5
752
 10
54.760899
 20
51.099981
 30
0.0
 11
54.446619
 21
51.400319
 31
0.0
  0
LINE
  8
WING
  6
CONTINUOUS
 62
     1
  5
753
 10
54.128379
 20
51.696665
 30
0.0
 11
53.806143
 21
51.988984
 31
0.0
  0
LINE
  8
WING
  6
CONTINUOUS
 62
     1
  5
754
 10
53.806143
 20
51.988984
 30
0.0
 11
53.479877
 21
52.27724
 31
0.0
  0
LINE
  8
WING
  6
CONTINUOUS
 62
     1
  5
755
 10
53.479877
 20
52.27724
 30
0.0
 11
53.236658
 21
52.483427
 31
0.0
  0
LINE
  8
WING
  6
CONTINUOUS
 62
     1
  5
756
 10
53.236658
 20
52.483427
 30
0.0
 11
52.988651
 21
52.683033
 31
0.0
  0
LINE
  8
WING
  6
CONTINUOUS
 62
     1
  5
757
 10
52.988651
 20
52.683033
 30
0.0
 11
52.736491
 21
52.876931
 31
0.0
  0
LINE
  8
WING
  6
CONTINUOUS
 62
     1
  5
758
 10
52.736491
 20
52.876931
 30
0.0
 11
52.480817
 21
53.065998
 31
0.0
  0
LINE
  8
WING
  6
CONTINUOUS
 62
     1
  5
759
 10
52.480817
 20
53.065998
 30
0.0
 11
52.222263
 21
53.251106
 31
0.0
  0
LINE
  8
WING
  6
CONTINUOUS
 62
     1
  5
75A
 10
52.222263
 20
53.251106
 30
0.0
 11
51.961466
 21
53.433132
 31
0.0
  0
LINE
  8
WING
  6
CONTINUOUS
 62
     1
  5
75B
 10
51.961466
 20
53.433132
 30
0.0
 11
51.699062
 21
53.612949
 31
0.0
  0
LINE
  8
WING
  6
CONTINUOUS
 62
     1
  5
75C
 10
51.699062
 20
53.612949
 30
0.0
 11
51.435689
 21
53.791433
 31
0.0
  0
LINE
  8
WING
  6
CONTINUOUS
 62
     1
  5
75D
 10
51.435689
 20
53.791433
 30
0.0
 11
51.171981
 21
53.969458
 31
0.0
  0
LINE
  8
WING
  6
CONTINUOUS
 62
     1
  5
75E
 10
51.171981
 20
53.969458
 30
0.0
 11
50.908576
 21
54.147899
 31
0.0
  0
LINE
  8
WING
  6
CONTINUOUS
 62
     1
  5
75F
 10
50.908576
 20
54.147899
 30
0.0
 11
50.570929
 21
54.37703
 31
0.0
  0
LINE
  8
WING
  6
CONTINUOUS
 62
     1
  5
760
 10
50.570929
 20
54.37703
 30
0.0
 11
50.232648
 21
54.605178
 31
0.0
  0
LINE
  8
WING
  6
CONTINUOUS
 62
     1
  5
761
 10
50.232648
 20
54.605178
 30
0.0
 11
49.893539
 21
54.832042
 31
0.0
  0
LINE
  8
WING
  6
CONTINUOUS
 62
     1
  5
762
 10
49.893539
 20
54.832042
 30
0.0
 11
49.553406
 21
55.057318
 31
0.0
  0
LINE
  8
WING
  6
CONTINUOUS
 62
     1
  5
763
 10
49.553406
 20
55.057318
 30
0.0
 11
49.212054
 21
55.280703
 31
0.0
  0
LINE
  8
WING
  6
CONTINUOUS
 62
     1
  5
764
 10
49.212054
 20
55.280703
 30
0.0
 11
48.869288
 21
55.501896
 31
0.0
  0
LINE
  8
WING
  6
CONTINUOUS
 62
     1
  5
765
 10
48.869288
 20
55.501896
 30
0.0
 11
48.524912
 21
55.720592
 31
0.0
  0
LINE
  8
WING
  6
CONTINUOUS
 62
     1
  5
766
 10
48.524912
 20
55.720592
 30
0.0
 11
48.178731
 21
55.936489
 31
0.0
  0
LINE
  8
WING
  6
CONTINUOUS
 62
     1
  5
767
 10
48.178731
 20
55.936489
 30
0.0
 11
47.830551
 21
56.149285
 31
0.0
  0
LINE
  8
WING
  6
CONTINUOUS
 62
     1
  5
768
 10
47.480175
 20
56.358677
 30
0.0
 11
47.110345
 21
56.576228
 31
0.0
  0
LINE
  8
WING
  6
CONTINUOUS
 62
     1
  5
769
 10
47.110345
 20
56.576228
 30
0.0
 11
46.73964
 21
56.792162
 31
0.0
  0
LINE
  8
WING
  6
CONTINUOUS
 62
     1
  5
76A
 10
46.73964
 20
56.792162
 30
0.0
 11
46.36778
 21
57.005963
 31
0.0
  0
LINE
  8
WING
  6
CONTINUOUS
 62
     1
  5
76B
 10
46.36778
 20
57.005963
 30
0.0
 11
45.994486
 21
57.217112
 31
0.0
  0
LINE
  8
WING
  6
CONTINUOUS
 62
     1
  5
76C
 10
45.994486
 20
57.217112
 30
0.0
 11
45.619478
 21
57.425094
 31
0.0
  0
LINE
  8
WING
  6
CONTINUOUS
 62
     1
  5
76D
 10
45.619478
 20
57.425094
 30
0.0
 11
45.242476
 21
57.629392
 31
0.0
  0
LINE
  8
WING
  6
CONTINUOUS
 62
     1
  5
76E
 10
45.242476
 20
57.629392
 30
0.0
 11
44.8632
 21
57.829487
 31
0.0
  0
LINE
  8
WING
  6
CONTINUOUS
 62
     1
  5
76F
 10
44.8632
 20
57.829487
 30
0.0
 11
44.481371
 21
58.024865
 31
0.0
  0
LINE
  8
WING
  6
CONTINUOUS
 62
     1
  5
770
 10
44.481371
 20
58.024865
 30
0.0
 11
44.096709
 21
58.215006
 31
0.0
  0
LINE
  8
WING
  6
CONTINUOUS
 62
     1
  5
771
 10
44.096709
 20
58.215006
 30
0.0
 11
43.708934
 21
58.399396
 31
0.0
  0
LINE
  8
WING
  6
CONTINUOUS
 62
     1
  5
772
 10
43.708934
 20
58.399396
 30
0.0
 11
43.254947
 21
58.608351
 31
0.0
  0
LINE
  8
WING
  6
CONTINUOUS
 62
     1
  5
773
 10
43.254947
 20
58.608351
 30
0.0
 11
42.799234
 21
58.813036
 31
0.0
  0
LINE
  8
WING
  6
CONTINUOUS
 62
     1
  5
774
 10
42.799234
 20
58.813036
 30
0.0
 11
42.341705
 21
59.013226
 31
0.0
  0
LINE
  8
WING
  6
CONTINUOUS
 62
     1
  5
775
 10
42.341705
 20
59.013226
 30
0.0
 11
41.882269
 21
59.208701
 31
0.0
  0
LINE
  8
WING
  6
CONTINUOUS
 62
     1
  5
776
 10
41.882269
 20
59.208701
 30
0.0
 11
41.420837
 21
59.399237
 31
0.0
  0
LINE
  8
WING
  6
CONTINUOUS
 62
     1
  5
777
 10
40.95732
 20
59.584612
 30
0.0
 11
40.491627
 21
59.764604
 31
0.0
  0
LINE
  8
WING
  6
CONTINUOUS
 62
     1
  5
778
 10
40.491627
 20
59.764604
 30
0.0
 11
40.023668
 21
59.93899
 31
0.0
  0
LINE
  8
WING
  6
CONTINUOUS
 62
     1
  5
779
 10
40.023668
 20
59.93899
 30
0.0
 11
39.553353
 21
60.107547
 31
0.0
  0
LINE
  8
WING
  6
CONTINUOUS
 62
     1
  5
77A
 10
39.553353
 20
60.107547
 30
0.0
 11
39.080593
 21
60.270054
 31
0.0
  0
LINE
  8
WING
  6
CONTINUOUS
 62
     1
  5
77B
 10
39.080593
 20
60.270054
 30
0.0
 11
38.538726
 21
60.447039
 31
0.0
  0
LINE
  8
WING
  6
CONTINUOUS
 62
     1
  5
77C
 10
38.538726
 20
60.447039
 30
0.0
 11
37.994422
 21
60.615292
 31
0.0
  0
LINE
  8
WING
  6
CONTINUOUS
 62
     1
  5
77D
 10
37.994422
 20
60.615292
 30
0.0
 11
37.44804
 21
60.776095
 31
0.0
  0
LINE
  8
WING
  6
CONTINUOUS
 62
     1
  5
77E
 10
37.44804
 20
60.776095
 30
0.0
 11
36.899936
 21
60.930726
 31
0.0
  0
LINE
  8
WING
  6
CONTINUOUS
 62
     1
  5
77F
 10
36.899936
 20
60.930726
 30
0.0
 11
36.350467
 21
61.080465
 31
0.0
  0
LINE
  8
WING
  6
CONTINUOUS
 62
     1
  5
780
 10
36.350467
 20
61.080465
 30
0.0
 11
35.799991
 21
61.226594
 31
0.0
  0
LINE
  8
WING
  6
CONTINUOUS
 62
     1
  5
781
 10
35.799991
 20
61.226594
 30
0.0
 11
35.248864
 21
61.370391
 31
0.0
  0
LINE
  8
WING
  6
CONTINUOUS
 62
     1
  5
782
 10
35.248864
 20
61.370391
 30
0.0
 11
34.697443
 21
61.513137
 31
0.0
  0
LINE
  8
WING
  6
CONTINUOUS
 62
     1
  5
783
 10
34.146087
 20
61.656111
 30
0.0
 11
33.595151
 21
61.800593
 31
0.0
  0
LINE
  8
WING
  6
CONTINUOUS
 62
     1
  5
784
 10
33.595151
 20
61.800593
 30
0.0
 11
33.1171
 21
61.927399
 31
0.0
  0
LINE
  8
WING
  6
CONTINUOUS
 62
     1
  5
785
 10
33.1171
 20
61.927399
 30
0.0
 11
32.639089
 21
62.054364
 31
0.0
  0
LINE
  8
WING
  6
CONTINUOUS
 62
     1
  5
786
 10
32.639089
 20
62.054364
 30
0.0
 11
32.160943
 21
62.180783
 31
0.0
  0
LINE
  8
WING
  6
CONTINUOUS
 62
     1
  5
787
 10
32.160943
 20
62.180783
 30
0.0
 11
31.682485
 21
62.305949
 31
0.0
  0
LINE
  8
WING
  6
CONTINUOUS
 62
     1
  5
788
 10
31.682485
 20
62.305949
 30
0.0
 11
31.203542
 21
62.429153
 31
0.0
  0
LINE
  8
WING
  6
CONTINUOUS
 62
     1
  5
789
 10
31.203542
 20
62.429153
 30
0.0
 11
30.723936
 21
62.549689
 31
0.0
  0
LINE
  8
WING
  6
CONTINUOUS
 62
     1
  5
78A
 10
30.723936
 20
62.549689
 30
0.0
 11
30.243494
 21
62.66685
 31
0.0
  0
LINE
  8
WING
  6
CONTINUOUS
 62
     1
  5
78B
 10
30.243494
 20
62.66685
 30
0.0
 11
29.762039
 21
62.779929
 31
0.0
  0
LINE
  8
WING
  6
CONTINUOUS
 62
     1
  5
78C
 10
29.762039
 20
62.779929
 30
0.0
 11
29.279396
 21
62.888219
 31
0.0
  0
LINE
  8
WING
  6
CONTINUOUS
 62
     1
  5
78D
 10
29.279396
 20
62.888219
 30
0.0
 11
28.79539
 21
62.991012
 31
0.0
  0
LINE
  8
WING
  6
CONTINUOUS
 62
     1
  5
78E
 10
28.79539
 20
62.991012
 30
0.0
 11
28.369472
 21
63.075619
 31
0.0
  0
LINE
  8
WING
  6
CONTINUOUS
 62
     1
  5
78F
 10
27.942677
 20
63.1547
 30
0.0
 11
27.515114
 21
63.228947
 31
0.0
  0
LINE
  8
WING
  6
CONTINUOUS
 62
     1
  5
790
 10
27.515114
 20
63.228947
 30
0.0
 11
27.086894
 21
63.299048
 31
0.0
  0
LINE
  8
WING
  6
CONTINUOUS
 62
     1
  5
791
 10
27.086894
 20
63.299048
 30
0.0
 11
26.658125
 21
63.365695
 31
0.0
  0
LINE
  8
WING
  6
CONTINUOUS
 62
     1
  5
792
 10
26.658125
 20
63.365695
 30
0.0
 11
26.228917
 21
63.429576
 31
0.0
  0
LINE
  8
WING
  6
CONTINUOUS
 62
     1
  5
793
 10
26.228917
 20
63.429576
 30
0.0
 11
25.79938
 21
63.491383
 31
0.0
  0
LINE
  8
WING
  6
CONTINUOUS
 62
     1
  5
794
 10
25.79938
 20
63.491383
 30
0.0
 11
25.369624
 21
63.551804
 31
0.0
  0
LINE
  8
WING
  6
CONTINUOUS
 62
     1
  5
795
 10
25.369624
 20
63.551804
 30
0.0
 11
24.939756
 21
63.611531
 31
0.0
  0
LINE
  8
WING
  6
CONTINUOUS
 62
     1
  5
796
 10
24.939756
 20
63.611531
 30
0.0
 11
24.509888
 21
63.671252
 31
0.0
  0
LINE
  8
WING
  6
CONTINUOUS
 62
     1
  5
797
 10
24.509888
 20
63.671252
 30
0.0
 11
23.856337
 21
63.76153
 31
0.0
  0
LINE
  8
WING
  6
CONTINUOUS
 62
     1
  5
798
 10
23.856337
 20
63.76153
 30
0.0
 11
23.20257
 21
63.850112
 31
0.0
  0
LINE
  8
WING
  6
CONTINUOUS
 62
     1
  5
799
 10
23.20257
 20
63.850112
 30
0.0
 11
22.548592
 21
63.937031
 31
0.0
  0
LINE
  8
WING
  6
CONTINUOUS
 62
     1
  5
79A
 10
22.548592
 20
63.937031
 30
0.0
 11
21.894407
 21
64.022317
 31
0.0
  0
LINE
  8
WING
  6
CONTINUOUS
 62
     1
  5
79B
 10
21.894407
 20
64.022317
 30
0.0
 11
21.240019
 21
64.106001
 31
0.0
  0
LINE
  8
WING
  6
CONTINUOUS
 62
     1
  5
79C
 10
20.585432
 20
64.188116
 30
0.0
 11
19.930649
 21
64.268693
 31
0.0
  0
LINE
  8
WING
  6
CONTINUOUS
 62
     1
  5
79D
 10
19.930649
 20
64.268693
 30
0.0
 11
19.275676
 21
64.347762
 31
0.0
  0
LINE
  8
WING
  6
CONTINUOUS
 62
     1
  5
79E
 10
19.275676
 20
64.347762
 30
0.0
 11
18.620515
 21
64.425356
 31
0.0
  0
LINE
  8
WING
  6
CONTINUOUS
 62
     1
  5
79F
 10
18.620515
 20
64.425356
 30
0.0
 11
17.965171
 21
64.501505
 31
0.0
  0
LINE
  8
WING
  6
CONTINUOUS
 62
     1
  5
7A0
 10
17.965171
 20
64.501505
 30
0.0
 11
17.559874
 21
64.527781
 31
0.0
  0
LINE
  8
WING
  6
CONTINUOUS
 62
     1
  5
7A1
 10
17.559874
 20
64.527781
 30
0.0
 11
17.154631
 21
64.5549
 31
0.0
  0
LINE
  8
WING
  6
CONTINUOUS
 62
     1
  5
7A2
 10
17.154631
 20
64.5549
 30
0.0
 11
16.749419
 21
64.582499
 31
0.0
  0
LINE
  8
WING
  6
CONTINUOUS
 62
     1
  5
7A3
 10
16.749419
 20
64.582499
 30
0.0
 11
16.344214
 21
64.610219
 31
0.0
  0
LINE
  8
WING
  6
CONTINUOUS
 62
     1
  5
7A4
 10
16.344214
 20
64.610219
 30
0.0
 11
15.938994
 21
64.637698
 31
0.0
  0
LINE
  8
WING
  6
CONTINUOUS
 62
     1
  5
7A5
 10
15.938994
 20
64.637698
 30
0.0
 11
15.533735
 21
64.664575
 31
0.0
  0
LINE
  8
WING
  6
CONTINUOUS
 62
     1
  5
7A6
 10
15.533735
 20
64.664575
 30
0.0
 11
15.128416
 21
64.690491
 31
0.0
  0
LINE
  8
WING
  6
CONTINUOUS
 62
     1
  5
7A7
 10
15.128416
 20
64.690491
 30
0.0
 11
14.723013
 21
64.715084
 31
0.0
  0
LINE
  8
WING
  6
CONTINUOUS
 62
     1
  5
7A8
 10
14.723013
 20
64.715084
 30
0.0
 11
14.317502
 21
64.737993
 31
0.0
  0
LINE
  8
WING
  6
CONTINUOUS
 62
     1
  5
7A9
 10
14.317502
 20
64.737993
 30
0.0
 11
13.911862
 21
64.758858
 31
0.0
  0
LINE
  8
WING
  6
CONTINUOUS
 62
     1
  5
7AA
 10
13.911862
 20
64.758858
 30
0.0
 11
13.390921
 21
64.783514
 31
0.0
  0
LINE
  8
WING
  6
CONTINUOUS
 62
     1
  5
7AB
 10
13.390921
 20
64.783514
 30
0.0
 11
12.869931
 21
64.806866
 31
0.0
  0
LINE
  8
WING
  6
CONTINUOUS
 62
     1
  5
7AC
 10
18.509376
 20
64.777246
 30
0.0
 11
17.919708
 21
64.802247
 31
0.0
  0
LINE
  8
WING
  6
CONTINUOUS
 62
     1
  5
7AD
 10
12.348895
 20
64.828956
 30
0.0
 11
11.827813
 21
64.849828
 31
0.0
  0
LINE
  8
WING
  6
CONTINUOUS
 62
     1
  5
7AE
 10
11.827813
 20
64.849828
 30
0.0
 11
11.306688
 21
64.869525
 31
0.0
  0
LINE
  8
WING
  6
CONTINUOUS
 62
     1
  5
7AF
 10
11.306688
 20
64.869525
 30
0.0
 11
10.785521
 21
64.888089
 31
0.0
  0
LINE
  8
WING
  6
CONTINUOUS
 62
     1
  5
7B0
 10
10.785521
 20
64.888089
 30
0.0
 11
10.264314
 21
64.905563
 31
0.0
  0
LINE
  8
WING
  6
CONTINUOUS
 62
     1
  5
7B1
 10
10.264314
 20
64.905563
 30
0.0
 11
9.743067
 21
64.921989
 31
0.0
  0
LINE
  8
WING
  6
CONTINUOUS
 62
     1
  5
7B2
 10
9.743067
 20
64.921989
 30
0.0
 11
9.221784
 21
64.937412
 31
0.0
  0
LINE
  8
WING
  6
CONTINUOUS
 62
     1
  5
7B3
 10
9.221784
 20
64.937412
 30
0.0
 11
8.700465
 21
64.951872
 31
0.0
  0
LINE
  8
WING
  6
CONTINUOUS
 62
     1
  5
7B4
 10
8.700465
 20
64.951872
 30
0.0
 11
8.205136
 21
64.96453
 31
0.0
  0
LINE
  8
WING
  6
CONTINUOUS
 62
     1
  5
7B5
 10
8.205136
 20
64.96453
 30
0.0
 11
7.709787
 21
64.975959
 31
0.0
  0
LINE
  8
WING
  6
CONTINUOUS
 62
     1
  5
7B6
 10
7.709787
 20
64.975959
 30
0.0
 11
7.214419
 21
64.98623
 31
0.0
  0
LINE
  8
WING
  6
CONTINUOUS
 62
     1
  5
7B7
 10
7.214419
 20
64.98623
 30
0.0
 11
6.719034
 21
64.995416
 31
0.0
  0
LINE
  8
WING
  6
CONTINUOUS
 62
     1
  5
7B8
 10
6.719034
 20
64.995416
 30
0.0
 11
6.223633
 21
65.003587
 31
0.0
  0
LINE
  8
WING
  6
CONTINUOUS
 62
     1
  5
7B9
 10
10.987623
 20
64.99988
 30
0.0
 11
10.426949
 21
65.00806
 31
0.0
  0
LINE
  8
WING
  6
CONTINUOUS
 62
     1
  5
7BA
 10
5.728216
 20
65.010815
 30
0.0
 11
5.232786
 21
65.017172
 31
0.0
  0
LINE
  8
WING
  6
CONTINUOUS
 62
     1
  5
7BB
 10
5.232786
 20
65.017172
 30
0.0
 11
4.737342
 21
65.02273
 31
0.0
  0
LINE
  8
WING
  6
CONTINUOUS
 62
     1
  5
7BC
 10
4.737342
 20
65.02273
 30
0.0
 11
4.241887
 21
65.027559
 31
0.0
  0
LINE
  8
WING
  6
CONTINUOUS
 62
     1
  5
7BD
 10
4.241887
 20
65.027559
 30
0.0
 11
3.746421
 21
65.031731
 31
0.0
  0
LINE
  8
WING
  6
CONTINUOUS
 62
     1
  5
7BE
 10
-29.943716
 20
65.031731
 30
0.0
 11
-64.624774
 21
65.031731
 31
0.0
  0
LINE
  8
WING
  6
CONTINUOUS
 62
     1
  5
7BF
 10
-29.824588
 20
35.951492
 30
0.0
 11
-83.125
 21
35.951492
 31
0.0
  0
LINE
  8
WING
  6
CONTINUOUS
 62
     1
  5
7C0
 10
-83.125
 20
35.951492
 30
0.0
 11
-84.17792
 21
35.984894
 31
0.0
  0
LINE
  8
WING
  6
CONTINUOUS
 62
     1
  5
7C1
 10
-84.17792
 20
35.984894
 30
0.0
 11
-85.230871
 21
36.017348
 31
0.0
  0
LINE
  8
WING
  6
CONTINUOUS
 62
     1
  5
7C2
 10
-85.230871
 20
36.017348
 30
0.0
 11
-86.283839
 21
36.04926
 31
0.0
  0
LINE
  8
WING
  6
CONTINUOUS
 62
     1
  5
7C3
 10
-86.283839
 20
36.04926
 30
0.0
 11
-87.336811
 21
36.081037
 31
0.0
  0
LINE
  8
WING
  6
CONTINUOUS
 62
     1
  5
7C4
 10
-87.336811
 20
36.081037
 30
0.0
 11
-88.389775
 21
36.113085
 31
0.0
  0
LINE
  8
WING
  6
CONTINUOUS
 62
     1
  5
7C5
 10
-88.389775
 20
36.113085
 30
0.0
 11
-89.442717
 21
36.14581
 31
0.0
  0
LINE
  8
WING
  6
CONTINUOUS
 62
     1
  5
7C6
 10
-89.442717
 20
36.14581
 30
0.0
 11
-90.495624
 21
36.179619
 31
0.0
  0
LINE
  8
WING
  6
CONTINUOUS
 62
     1
  5
7C7
 10
-90.495624
 20
36.179619
 30
0.0
 11
-91.548483
 21
36.214918
 31
0.0
  0
LINE
  8
WING
  6
CONTINUOUS
 62
     1
  5
7C8
 10
-91.548483
 20
36.214918
 30
0.0
 11
-92.60128
 21
36.252113
 31
0.0
  0
LINE
  8
WING
  6
CONTINUOUS
 62
     1
  5
7C9
 10
-92.60128
 20
36.252113
 30
0.0
 11
-93.654003
 21
36.291611
 31
0.0
  0
LINE
  8
WING
  6
CONTINUOUS
 62
     1
  5
7CA
 10
-93.654003
 20
36.291611
 30
0.0
 11
-94.357151
 21
36.318907
 31
0.0
  0
LINE
  8
WING
  6
CONTINUOUS
 62
     1
  5
7CB
 10
-94.357151
 20
36.318907
 30
0.0
 11
-95.060279
 21
36.346587
 31
0.0
  0
LINE
  8
WING
  6
CONTINUOUS
 62
     1
  5
7CC
 10
-95.060279
 20
36.346587
 30
0.0
 11
-95.763369
 21
36.375066
 31
0.0
  0
LINE
  8
WING
  6
CONTINUOUS
 62
     1
  5
7CD
 10
-95.763369
 20
36.375066
 30
0.0
 11
-96.4664
 21
36.40476
 31
0.0
  0
LINE
  8
WING
  6
CONTINUOUS
 62
     1
  5
7CE
 10
-96.4664
 20
36.40476
 30
0.0
 11
-97.169353
 21
36.436085
 31
0.0
  0
LINE
  8
WING
  6
CONTINUOUS
 62
     1
  5
7CF
 10
-97.169353
 20
36.436085
 30
0.0
 11
-97.872206
 21
36.469458
 31
0.0
  0
LINE
  8
WING
  6
CONTINUOUS
 62
     1
  5
7D0
 10
-97.872206
 20
36.469458
 30
0.0
 11
-98.57494
 21
36.505292
 31
0.0
  0
LINE
  8
WING
  6
CONTINUOUS
 62
     1
  5
7D1
 10
-98.57494
 20
36.505292
 30
0.0
 11
-99.277534
 21
36.544006
 31
0.0
  0
LINE
  8
WING
  6
CONTINUOUS
 62
     1
  5
7D2
 10
-99.277534
 20
36.544006
 30
0.0
 11
-99.97997
 21
36.586013
 31
0.0
  0
LINE
  8
WING
  6
CONTINUOUS
 62
     1
  5
7D3
 10
-99.97997
 20
36.586013
 30
0.0
 11
-100.682225
 21
36.631731
 31
0.0
  0
LINE
  8
WING
  6
CONTINUOUS
 62
     1
  5
7D4
 10
-100.682225
 20
36.631731
 30
0.0
 11
-101.231861
 21
36.67101
 31
0.0
  0
LINE
  8
WING
  6
CONTINUOUS
 62
     1
  5
7D5
 10
-101.231861
 20
36.67101
 30
0.0
 11
-101.781163
 21
36.71388
 31
0.0
  0
LINE
  8
WING
  6
CONTINUOUS
 62
     1
  5
7D6
 10
-101.781163
 20
36.71388
 30
0.0
 11
-102.330165
 21
36.759974
 31
0.0
  0
LINE
  8
WING
  6
CONTINUOUS
 62
     1
  5
7D7
 10
-102.330165
 20
36.759974
 30
0.0
 11
-102.878902
 21
36.808923
 31
0.0
  0
LINE
  8
WING
  6
CONTINUOUS
 62
     1
  5
7D8
 10
-102.878902
 20
36.808923
 30
0.0
 11
-103.427408
 21
36.860357
 31
0.0
  0
LINE
  8
WING
  6
CONTINUOUS
 62
     1
  5
7D9
 10
-103.427408
 20
36.860357
 30
0.0
 11
-103.975716
 21
36.913909
 31
0.0
  0
LINE
  8
WING
  6
CONTINUOUS
 62
     1
  5
7DA
 10
-103.975716
 20
36.913909
 30
0.0
 11
-104.523862
 21
36.969208
 31
0.0
  0
LINE
  8
WING
  6
CONTINUOUS
 62
     1
  5
7DB
 10
-104.523862
 20
36.969208
 30
0.0
 11
-105.07188
 21
37.025888
 31
0.0
  0
LINE
  8
WING
  6
CONTINUOUS
 62
     1
  5
7DC
 10
-105.07188
 20
37.025888
 30
0.0
 11
-105.619803
 21
37.083578
 31
0.0
  0
LINE
  8
WING
  6
CONTINUOUS
 62
     1
  5
7DD
 10
-105.619803
 20
37.083578
 30
0.0
 11
-106.167667
 21
37.141911
 31
0.0
  0
LINE
  8
WING
  6
CONTINUOUS
 62
     1
  5
7DE
 10
-106.167667
 20
37.141911
 30
0.0
 11
-106.734212
 21
37.202792
 31
0.0
  0
LINE
  8
WING
  6
CONTINUOUS
 62
     1
  5
7DF
 10
-106.734212
 20
37.202792
 30
0.0
 11
-107.300652
 21
37.264548
 31
0.0
  0
LINE
  8
WING
  6
CONTINUOUS
 62
     1
  5
7E0
 10
-107.300652
 20
37.264548
 30
0.0
 11
-107.866955
 21
37.327446
 31
0.0
  0
LINE
  8
WING
  6
CONTINUOUS
 62
     1
  5
7E1
 10
-107.866955
 20
37.327446
 30
0.0
 11
-108.433088
 21
37.391754
 31
0.0
  0
LINE
  8
WING
  6
CONTINUOUS
 62
     1
  5
7E2
 10
-108.433088
 20
37.391754
 30
0.0
 11
-108.999019
 21
37.457737
 31
0.0
  0
LINE
  8
WING
  6
CONTINUOUS
 62
     1
  5
7E3
 10
-108.999019
 20
37.457737
 30
0.0
 11
-109.564717
 21
37.525664
 31
0.0
  0
LINE
  8
WING
  6
CONTINUOUS
 62
     1
  5
7E4
 10
-109.564717
 20
37.525664
 30
0.0
 11
-110.130149
 21
37.595802
 31
0.0
  0
LINE
  8
WING
  6
CONTINUOUS
 62
     1
  5
7E5
 10
-110.130149
 20
37.595802
 30
0.0
 11
-110.695283
 21
37.668417
 31
0.0
  0
LINE
  8
WING
  6
CONTINUOUS
 62
     1
  5
7E6
 10
-110.695283
 20
37.668417
 30
0.0
 11
-111.260087
 21
37.743778
 31
0.0
  0
LINE
  8
WING
  6
CONTINUOUS
 62
     1
  5
7E7
 10
-111.260087
 20
37.743778
 30
0.0
 11
-111.824529
 21
37.82215
 31
0.0
  0
LINE
  8
WING
  6
CONTINUOUS
 62
     1
  5
7E8
 10
-111.824529
 20
37.82215
 30
0.0
 11
-112.100748
 21
37.8627
 31
0.0
  0
LINE
  8
WING
  6
CONTINUOUS
 62
     1
  5
7E9
 10
-112.100748
 20
37.8627
 30
0.0
 11
-112.376474
 21
37.905902
 31
0.0
  0
LINE
  8
WING
  6
CONTINUOUS
 62
     1
  5
7EA
 10
-112.376474
 20
37.905902
 30
0.0
 11
-112.651729
 21
37.951634
 31
0.0
  0
LINE
  8
WING
  6
CONTINUOUS
 62
     1
  5
7EB
 10
-112.651729
 20
37.951634
 30
0.0
 11
-112.926537
 21
37.999775
 31
0.0
  0
LINE
  8
WING
  6
CONTINUOUS
 62
     1
  5
7EC
 10
-112.926537
 20
37.999775
 30
0.0
 11
-113.200919
 21
38.0502
 31
0.0
  0
LINE
  8
WING
  6
CONTINUOUS
 62
     1
  5
7ED
 10
-113.200919
 20
38.0502
 30
0.0
 11
-113.474899
 21
38.102789
 31
0.0
  0
LINE
  8
WING
  6
CONTINUOUS
 62
     1
  5
7EE
 10
-113.474899
 20
38.102789
 30
0.0
 11
-113.748499
 21
38.157418
 31
0.0
  0
LINE
  8
WING
  6
CONTINUOUS
 62
     1
  5
7EF
 10
-113.748499
 20
38.157418
 30
0.0
 11
-114.021742
 21
38.213967
 31
0.0
  0
LINE
  8
WING
  6
CONTINUOUS
 62
     1
  5
7F0
 10
-114.021742
 20
38.213967
 30
0.0
 11
-114.294652
 21
38.272311
 31
0.0
  0
LINE
  8
WING
  6
CONTINUOUS
 62
     1
  5
7F1
 10
-114.294652
 20
38.272311
 30
0.0
 11
-114.56725
 21
38.33233
 31
0.0
  0
LINE
  8
WING
  6
CONTINUOUS
 62
     1
  5
7F2
 10
-114.56725
 20
38.33233
 30
0.0
 11
-114.981009
 21
38.424887
 31
0.0
  0
LINE
  8
WING
  6
CONTINUOUS
 62
     1
  5
7F3
 10
-114.981009
 20
38.424887
 30
0.0
 11
-115.394588
 21
38.518168
 31
0.0
  0
LINE
  8
WING
  6
CONTINUOUS
 62
     1
  5
7F4
 10
-115.394588
 20
38.518168
 30
0.0
 11
-115.807859
 21
38.612691
 31
0.0
  0
LINE
  8
WING
  6
CONTINUOUS
 62
     1
  5
7F5
 10
-115.807859
 20
38.612691
 30
0.0
 11
-116.220694
 21
38.708976
 31
0.0
  0
LINE
  8
WING
  6
CONTINUOUS
 62
     1
  5
7F6
 10
-116.220694
 20
38.708976
 30
0.0
 11
-116.632963
 21
38.80754
 31
0.0
  0
LINE
  8
WING
  6
CONTINUOUS
 62
     1
  5
7F7
 10
-116.632963
 20
38.80754
 30
0.0
 11
-117.044539
 21
38.908901
 31
0.0
  0
LINE
  8
WING
  6
CONTINUOUS
 62
     1
  5
7F8
 10
-117.044539
 20
38.908901
 30
0.0
 11
-117.455292
 21
39.013578
 31
0.0
  0
LINE
  8
WING
  6
CONTINUOUS
 62
     1
  5
7F9
 10
-117.455292
 20
39.013578
 30
0.0
 11
-117.865094
 21
39.12209
 31
0.0
  0
LINE
  8
WING
  6
CONTINUOUS
 62
     1
  5
7FA
 10
-117.865094
 20
39.12209
 30
0.0
 11
-118.273816
 21
39.234954
 31
0.0
  0
LINE
  8
WING
  6
CONTINUOUS
 62
     1
  5
7FB
 10
-118.273816
 20
39.234954
 30
0.0
 11
-118.681331
 21
39.352689
 31
0.0
  0
LINE
  8
WING
  6
CONTINUOUS
 62
     1
  5
7FC
 10
-118.681331
 20
39.352689
 30
0.0
 11
-118.885288
 21
39.415943
 31
0.0
  0
LINE
  8
WING
  6
CONTINUOUS
 62
     1
  5
7FD
 10
-118.885288
 20
39.415943
 30
0.0
 11
-119.087326
 21
39.484057
 31
0.0
  0
LINE
  8
WING
  6
CONTINUOUS
 62
     1
  5
7FE
 10
-119.087326
 20
39.484057
 30
0.0
 11
-119.287671
 21
39.556456
 31
0.0
  0
LINE
  8
WING
  6
CONTINUOUS
 62
     1
  5
7FF
 10
-119.287671
 20
39.556456
 30
0.0
 11
-119.48655
 21
39.632566
 31
0.0
  0
LINE
  8
WING
  6
CONTINUOUS
 62
     1
  5
800
 10
-119.48655
 20
39.632566
 30
0.0
 11
-119.684191
 21
39.711811
 31
0.0
  0
LINE
  8
WING
  6
CONTINUOUS
 62
     1
  5
801
 10
-119.684191
 20
39.711811
 30
0.0
 11
-119.88082
 21
39.793618
 31
0.0
  0
LINE
  8
WING
  6
CONTINUOUS
 62
     1
  5
802
 10
-119.88082
 20
39.793618
 30
0.0
 11
-120.076664
 21
39.877411
 31
0.0
  0
LINE
  8
WING
  6
CONTINUOUS
 62
     1
  5
803
 10
-120.076664
 20
39.877411
 30
0.0
 11
-120.27195
 21
39.962616
 31
0.0
  0
LINE
  8
WING
  6
CONTINUOUS
 62
     1
  5
804
 10
-120.27195
 20
39.962616
 30
0.0
 11
-120.466906
 21
40.048659
 31
0.0
  0
LINE
  8
WING
  6
CONTINUOUS
 62
     1
  5
805
 10
-120.466906
 20
40.048659
 30
0.0
 11
-120.661758
 21
40.134965
 31
0.0
  0
LINE
  8
WING
  6
CONTINUOUS
 62
     1
  5
806
 10
-120.661758
 20
40.134965
 30
0.0
 11
-120.684671
 21
40.146153
 31
0.0
  0
LINE
  8
WING
  6
CONTINUOUS
 62
     1
  5
807
 10
-120.684671
 20
40.146153
 30
0.0
 11
-120.706172
 21
40.158765
 31
0.0
  0
LINE
  8
WING
  6
CONTINUOUS
 62
     1
  5
808
 10
-120.706172
 20
40.158765
 30
0.0
 11
-120.72631
 21
40.172751
 31
0.0
  0
LINE
  8
WING
  6
CONTINUOUS
 62
     1
  5
809
 10
-120.72631
 20
40.172751
 30
0.0
 11
-120.745133
 21
40.188063
 31
0.0
  0
LINE
  8
WING
  6
CONTINUOUS
 62
     1
  5
80A
 10
-120.745133
 20
40.188063
 30
0.0
 11
-120.762689
 21
40.204651
 31
0.0
  0
LINE
  8
WING
  6
CONTINUOUS
 62
     1
  5
80B
 10
-120.762689
 20
40.204651
 30
0.0
 11
-120.779028
 21
40.222467
 31
0.0
  0
LINE
  8
WING
  6
CONTINUOUS
 62
     1
  5
80C
 10
-120.779028
 20
40.222467
 30
0.0
 11
-120.794198
 21
40.241461
 31
0.0
  0
LINE
  8
WING
  6
CONTINUOUS
 62
     1
  5
80D
 10
-120.794198
 20
40.241461
 30
0.0
 11
-120.808247
 21
40.261585
 31
0.0
  0
LINE
  8
WING
  6
CONTINUOUS
 62
     1
  5
80E
 10
-120.808247
 20
40.261585
 30
0.0
 11
-120.821224
 21
40.282789
 31
0.0
  0
LINE
  8
WING
  6
CONTINUOUS
 62
     1
  5
80F
 10
-120.821224
 20
40.282789
 30
0.0
 11
-120.833178
 21
40.305024
 31
0.0
  0
LINE
  8
WING
  6
CONTINUOUS
 62
     1
  5
810
 10
-120.833178
 20
40.305024
 30
0.0
 11
-120.875595
 21
40.386775
 31
0.0
  0
LINE
  8
WING
  6
CONTINUOUS
 62
     1
  5
811
 10
-120.875595
 20
40.386775
 30
0.0
 11
-120.919265
 21
40.468021
 31
0.0
  0
LINE
  8
WING
  6
CONTINUOUS
 62
     1
  5
812
 10
-120.919265
 20
40.468021
 30
0.0
 11
-120.96304
 21
40.549224
 31
0.0
  0
LINE
  8
WING
  6
CONTINUOUS
 62
     1
  5
813
 10
-120.96304
 20
40.549224
 30
0.0
 11
-121.005774
 21
40.630847
 31
0.0
  0
LINE
  8
WING
  6
CONTINUOUS
 62
     1
  5
814
 10
-121.005774
 20
40.630847
 30
0.0
 11
-121.046318
 21
40.713353
 31
0.0
  0
LINE
  8
WING
  6
CONTINUOUS
 62
     1
  5
815
 10
-121.046318
 20
40.713353
 30
0.0
 11
-121.083524
 21
40.797204
 31
0.0
  0
LINE
  8
WING
  6
CONTINUOUS
 62
     1
  5
816
 10
-121.083524
 20
40.797204
 30
0.0
 11
-121.116245
 21
40.882865
 31
0.0
  0
LINE
  8
WING
  6
CONTINUOUS
 62
     1
  5
817
 10
-121.116245
 20
40.882865
 30
0.0
 11
-121.143332
 21
40.970796
 31
0.0
  0
LINE
  8
WING
  6
CONTINUOUS
 62
     1
  5
818
 10
-121.143332
 20
40.970796
 30
0.0
 11
-121.163639
 21
41.061462
 31
0.0
  0
LINE
  8
WING
  6
CONTINUOUS
 62
     1
  5
819
 10
-121.163639
 20
41.061462
 30
0.0
 11
-121.176018
 21
41.155324
 31
0.0
  0
LINE
  8
WING
  6
CONTINUOUS
 62
     1
  5
81A
 10
-121.176018
 20
41.155324
 30
0.0
 11
-121.182834
 21
41.277816
 31
0.0
  0
LINE
  8
WING
  6
CONTINUOUS
 62
     1
  5
81B
 10
-121.182834
 20
41.277816
 30
0.0
 11
-121.182959
 21
41.399344
 31
0.0
  0
LINE
  8
WING
  6
CONTINUOUS
 62
     1
  5
81C
 10
-121.182959
 20
41.399344
 30
0.0
 11
-121.176907
 21
41.519983
 31
0.0
  0
LINE
  8
WING
  6
CONTINUOUS
 62
     1
  5
81D
 10
-121.176907
 20
41.519983
 30
0.0
 11
-121.165189
 21
41.639806
 31
0.0
  0
LINE
  8
WING
  6
CONTINUOUS
 62
     1
  5
81E
 10
-121.165189
 20
41.639806
 30
0.0
 11
-121.148317
 21
41.758887
 31
0.0
  0
LINE
  8
WING
  6
CONTINUOUS
 62
     1
  5
81F
 10
-121.148317
 20
41.758887
 30
0.0
 11
-121.126805
 21
41.877299
 31
0.0
  0
LINE
  8
WING
  6
CONTINUOUS
 62
     1
  5
820
 10
-121.126805
 20
41.877299
 30
0.0
 11
-121.101165
 21
41.995118
 31
0.0
  0
LINE
  8
WING
  6
CONTINUOUS
 62
     1
  5
821
 10
-121.101165
 20
41.995118
 30
0.0
 11
-121.071909
 21
42.112415
 31
0.0
  0
LINE
  8
WING
  6
CONTINUOUS
 62
     1
  5
822
 10
-121.071909
 20
42.112415
 30
0.0
 11
-121.039549
 21
42.229266
 31
0.0
  0
LINE
  8
WING
  6
CONTINUOUS
 62
     1
  5
823
 10
-121.039549
 20
42.229266
 30
0.0
 11
-121.004598
 21
42.345743
 31
0.0
  0
LINE
  8
WING
  6
CONTINUOUS
 62
     1
  5
824
 10
-121.004598
 20
42.345743
 30
0.0
 11
-120.96727
 21
42.454884
 31
0.0
  0
LINE
  8
WING
  6
CONTINUOUS
 62
     1
  5
825
 10
-120.96727
 20
42.454884
 30
0.0
 11
-120.924504
 21
42.561285
 31
0.0
  0
LINE
  8
WING
  6
CONTINUOUS
 62
     1
  5
826
 10
-120.924504
 20
42.561285
 30
0.0
 11
-120.877164
 21
42.66538
 31
0.0
  0
LINE
  8
WING
  6
CONTINUOUS
 62
     1
  5
827
 10
-120.877164
 20
42.66538
 30
0.0
 11
-120.826115
 21
42.767606
 31
0.0
  0
LINE
  8
WING
  6
CONTINUOUS
 62
     1
  5
828
 10
-120.826115
 20
42.767606
 30
0.0
 11
-120.772221
 21
42.868398
 31
0.0
  0
LINE
  8
WING
  6
CONTINUOUS
 62
     1
  5
829
 10
-120.772221
 20
42.868398
 30
0.0
 11
-120.716347
 21
42.968193
 31
0.0
  0
LINE
  8
WING
  6
CONTINUOUS
 62
     1
  5
82A
 10
-120.716347
 20
42.968193
 30
0.0
 11
-120.659358
 21
43.067424
 31
0.0
  0
LINE
  8
WING
  6
CONTINUOUS
 62
     1
  5
82B
 10
-120.659358
 20
43.067424
 30
0.0
 11
-120.602116
 21
43.166529
 31
0.0
  0
LINE
  8
WING
  6
CONTINUOUS
 62
     1
  5
82C
 10
-120.602116
 20
43.166529
 30
0.0
 11
-120.545488
 21
43.265943
 31
0.0
  0
LINE
  8
WING
  6
CONTINUOUS
 62
     1
  5
82D
 10
-120.545488
 20
43.265943
 30
0.0
 11
-120.490338
 21
43.366102
 31
0.0
  0
LINE
  8
WING
  6
CONTINUOUS
 62
     1
  5
82E
 10
-120.490338
 20
43.366102
 30
0.0
 11
-120.407504
 21
43.520767
 31
0.0
  0
LINE
  8
WING
  6
CONTINUOUS
 62
     1
  5
82F
 10
-120.407504
 20
43.520767
 30
0.0
 11
-120.324927
 21
43.675575
 31
0.0
  0
LINE
  8
WING
  6
CONTINUOUS
 62
     1
  5
830
 10
-120.324927
 20
43.675575
 30
0.0
 11
-120.242272
 21
43.83034
 31
0.0
  0
LINE
  8
WING
  6
CONTINUOUS
 62
     1
  5
831
 10
-120.242272
 20
43.83034
 30
0.0
 11
-120.159201
 21
43.984872
 31
0.0
  0
LINE
  8
WING
  6
CONTINUOUS
 62
     1
  5
832
 10
-120.159201
 20
43.984872
 30
0.0
 11
-120.07538
 21
44.138983
 31
0.0
  0
LINE
  8
WING
  6
CONTINUOUS
 62
     1
  5
833
 10
-120.07538
 20
44.138983
 30
0.0
 11
-119.990471
 21
44.292486
 31
0.0
  0
LINE
  8
WING
  6
CONTINUOUS
 62
     1
  5
834
 10
-119.990471
 20
44.292486
 30
0.0
 11
-119.904139
 21
44.445191
 31
0.0
  0
LINE
  8
WING
  6
CONTINUOUS
 62
     1
  5
835
 10
-119.904139
 20
44.445191
 30
0.0
 11
-119.816046
 21
44.596911
 31
0.0
  0
LINE
  8
WING
  6
CONTINUOUS
 62
     1
  5
836
 10
-119.816046
 20
44.596911
 30
0.0
 11
-119.725858
 21
44.747457
 31
0.0
  0
LINE
  8
WING
  6
CONTINUOUS
 62
     1
  5
837
 10
-119.725858
 20
44.747457
 30
0.0
 11
-119.633238
 21
44.896641
 31
0.0
  0
LINE
  8
WING
  6
CONTINUOUS
 62
     1
  5
838
 10
-119.633238
 20
44.896641
 30
0.0
 11
-119.527479
 21
45.061117
 31
0.0
  0
LINE
  8
WING
  6
CONTINUOUS
 62
     1
  5
839
 10
-119.527479
 20
45.061117
 30
0.0
 11
-119.41959
 21
45.224096
 31
0.0
  0
LINE
  8
WING
  6
CONTINUOUS
 62
     1
  5
83A
 10
-119.41959
 20
45.224096
 30
0.0
 11
-119.309821
 21
45.385754
 31
0.0
  0
LINE
  8
WING
  6
CONTINUOUS
 62
     1
  5
83B
 10
-119.309821
 20
45.385754
 30
0.0
 11
-119.198424
 21
45.546268
 31
0.0
  0
LINE
  8
WING
  6
CONTINUOUS
 62
     1
  5
83C
 10
-119.198424
 20
45.546268
 30
0.0
 11
-119.085649
 21
45.705813
 31
0.0
  0
LINE
  8
WING
  6
CONTINUOUS
 62
     1
  5
83D
 10
-119.085649
 20
45.705813
 30
0.0
 11
-118.971748
 21
45.864568
 31
0.0
  0
LINE
  8
WING
  6
CONTINUOUS
 62
     1
  5
83E
 10
-118.971748
 20
45.864568
 30
0.0
 11
-118.856973
 21
46.022707
 31
0.0
  0
LINE
  8
WING
  6
CONTINUOUS
 62
     1
  5
83F
 10
-118.856973
 20
46.022707
 30
0.0
 11
-118.741574
 21
46.180409
 31
0.0
  0
LINE
  8
WING
  6
CONTINUOUS
 62
     1
  5
840
 10
-118.741574
 20
46.180409
 30
0.0
 11
-118.625803
 21
46.337849
 31
0.0
  0
LINE
  8
WING
  6
CONTINUOUS
 62
     1
  5
841
 10
-118.625803
 20
46.337849
 30
0.0
 11
-118.509911
 21
46.495204
 31
0.0
  0
LINE
  8
WING
  6
CONTINUOUS
 62
     1
  5
842
 10
-118.509911
 20
46.495204
 30
0.0
 11
-118.308952
 21
46.770888
 31
0.0
  0
LINE
  8
WING
  6
CONTINUOUS
 62
     1
  5
843
 10
-118.308952
 20
46.770888
 30
0.0
 11
-118.109861
 21
47.047983
 31
0.0
  0
LINE
  8
WING
  6
CONTINUOUS
 62
     1
  5
844
 10
-118.109861
 20
47.047983
 30
0.0
 11
-117.911541
 21
47.32566
 31
0.0
  0
LINE
  8
WING
  6
CONTINUOUS
 62
     1
  5
845
 10
-117.911541
 20
47.32566
 30
0.0
 11
-117.712896
 21
47.603093
 31
0.0
  0
LINE
  8
WING
  6
CONTINUOUS
 62
     1
  5
846
 10
-117.712896
 20
47.603093
 30
0.0
 11
-117.512832
 21
47.879453
 31
0.0
  0
LINE
  8
WING
  6
CONTINUOUS
 62
     1
  5
847
 10
-117.512832
 20
47.879453
 30
0.0
 11
-117.310252
 21
48.153911
 31
0.0
  0
LINE
  8
WING
  6
CONTINUOUS
 62
     1
  5
848
 10
-117.310252
 20
48.153911
 30
0.0
 11
-117.104062
 21
48.425639
 31
0.0
  0
LINE
  8
WING
  6
CONTINUOUS
 62
     1
  5
849
 10
-117.104062
 20
48.425639
 30
0.0
 11
-116.893165
 21
48.693809
 31
0.0
  0
LINE
  8
WING
  6
CONTINUOUS
 62
     1
  5
84A
 10
-116.893165
 20
48.693809
 30
0.0
 11
-116.676466
 21
48.957593
 31
0.0
  0
LINE
  8
WING
  6
CONTINUOUS
 62
     1
  5
84B
 10
-116.676466
 20
48.957593
 30
0.0
 11
-116.45287
 21
49.216162
 31
0.0
  0
LINE
  8
WING
  6
CONTINUOUS
 62
     1
  5
84C
 10
-116.45287
 20
49.216162
 30
0.0
 11
-116.161594
 21
49.539689
 31
0.0
  0
LINE
  8
WING
  6
CONTINUOUS
 62
     1
  5
84D
 10
-116.161594
 20
49.539689
 30
0.0
 11
-115.866574
 21
49.85944
 31
0.0
  0
LINE
  8
WING
  6
CONTINUOUS
 62
     1
  5
84E
 10
-115.866574
 20
49.85944
 30
0.0
 11
-115.567774
 21
50.175382
 31
0.0
  0
LINE
  8
WING
  6
CONTINUOUS
 62
     1
  5
84F
 10
-115.567774
 20
50.175382
 30
0.0
 11
-115.265157
 21
50.487476
 31
0.0
  0
LINE
  8
WING
  6
CONTINUOUS
 62
     1
  5
850
 10
-115.265157
 20
50.487476
 30
0.0
 11
-114.958688
 21
50.795688
 31
0.0
  0
LINE
  8
WING
  6
CONTINUOUS
 62
     1
  5
851
 10
-114.958688
 20
50.795688
 30
0.0
 11
-114.648331
 21
51.099981
 31
0.0
  0
LINE
  8
WING
  6
CONTINUOUS
 62
     1
  5
852
 10
-114.648331
 20
51.099981
 30
0.0
 11
-114.334051
 21
51.400319
 31
0.0
  0
LINE
  8
WING
  6
CONTINUOUS
 62
     1
  5
853
 10
-114.334051
 20
51.400319
 30
0.0
 11
-114.015811
 21
51.696665
 31
0.0
  0
LINE
  8
WING
  6
CONTINUOUS
 62
     1
  5
854
 10
-114.015811
 20
51.696665
 30
0.0
 11
-113.693576
 21
51.988984
 31
0.0
  0
LINE
  8
WING
  6
CONTINUOUS
 62
     1
  5
855
 10
-113.693576
 20
51.988984
 30
0.0
 11
-113.367309
 21
52.27724
 31
0.0
  0
LINE
  8
WING
  6
CONTINUOUS
 62
     1
  5
856
 10
-113.367309
 20
52.27724
 30
0.0
 11
-113.12409
 21
52.483427
 31
0.0
  0
LINE
  8
WING
  6
CONTINUOUS
 62
     1
  5
857
 10
-113.12409
 20
52.483427
 30
0.0
 11
-112.876083
 21
52.683033
 31
0.0
  0
LINE
  8
WING
  6
CONTINUOUS
 62
     1
  5
858
 10
-112.876083
 20
52.683033
 30
0.0
 11
-112.623924
 21
52.876931
 31
0.0
  0
LINE
  8
WING
  6
CONTINUOUS
 62
     1
  5
859
 10
-112.623924
 20
52.876931
 30
0.0
 11
-112.368249
 21
53.065998
 31
0.0
  0
LINE
  8
WING
  6
CONTINUOUS
 62
     1
  5
85A
 10
-112.368249
 20
53.065998
 30
0.0
 11
-112.109695
 21
53.251106
 31
0.0
  0
LINE
  8
WING
  6
CONTINUOUS
 62
     1
  5
85B
 10
-112.109695
 20
53.251106
 30
0.0
 11
-111.848898
 21
53.433132
 31
0.0
  0
LINE
  8
WING
  6
CONTINUOUS
 62
     1
  5
85C
 10
-111.848898
 20
53.433132
 30
0.0
 11
-111.586495
 21
53.612949
 31
0.0
  0
LINE
  8
WING
  6
CONTINUOUS
 62
     1
  5
85D
 10
-111.586495
 20
53.612949
 30
0.0
 11
-111.323121
 21
53.791433
 31
0.0
  0
LINE
  8
WING
  6
CONTINUOUS
 62
     1
  5
85E
 10
-111.323121
 20
53.791433
 30
0.0
 11
-111.059413
 21
53.969458
 31
0.0
  0
LINE
  8
WING
  6
CONTINUOUS
 62
     1
  5
85F
 10
-111.059413
 20
53.969458
 30
0.0
 11
-110.796008
 21
54.147899
 31
0.0
  0
LINE
  8
WING
  6
CONTINUOUS
 62
     1
  5
860
 10
-110.796008
 20
54.147899
 30
0.0
 11
-110.458361
 21
54.37703
 31
0.0
  0
LINE
  8
WING
  6
CONTINUOUS
 62
     1
  5
861
 10
-110.458361
 20
54.37703
 30
0.0
 11
-110.120081
 21
54.605178
 31
0.0
  0
LINE
  8
WING
  6
CONTINUOUS
 62
     1
  5
862
 10
-110.120081
 20
54.605178
 30
0.0
 11
-109.780972
 21
54.832042
 31
0.0
  0
LINE
  8
WING
  6
CONTINUOUS
 62
     1
  5
863
 10
-109.780972
 20
54.832042
 30
0.0
 11
-109.440839
 21
55.057318
 31
0.0
  0
LINE
  8
WING
  6
CONTINUOUS
 62
     1
  5
864
 10
-109.440839
 20
55.057318
 30
0.0
 11
-109.099487
 21
55.280703
 31
0.0
  0
LINE
  8
WING
  6
CONTINUOUS
 62
     1
  5
865
 10
-109.099487
 20
55.280703
 30
0.0
 11
-108.75672
 21
55.501896
 31
0.0
  0
LINE
  8
WING
  6
CONTINUOUS
 62
     1
  5
866
 10
-108.75672
 20
55.501896
 30
0.0
 11
-108.412344
 21
55.720592
 31
0.0
  0
LINE
  8
WING
  6
CONTINUOUS
 62
     1
  5
867
 10
-108.412344
 20
55.720592
 30
0.0
 11
-108.066164
 21
55.936489
 31
0.0
  0
LINE
  8
WING
  6
CONTINUOUS
 62
     1
  5
868
 10
-108.066164
 20
55.936489
 30
0.0
 11
-107.717983
 21
56.149285
 31
0.0
  0
LINE
  8
WING
  6
CONTINUOUS
 62
     1
  5
869
 10
-107.717983
 20
56.149285
 30
0.0
 11
-107.367607
 21
56.358677
 31
0.0
  0
LINE
  8
WING
  6
CONTINUOUS
 62
     1
  5
86A
 10
-107.367607
 20
56.358677
 30
0.0
 11
-106.997777
 21
56.576228
 31
0.0
  0
LINE
  8
WING
  6
CONTINUOUS
 62
     1
  5
86B
 10
-106.997777
 20
56.576228
 30
0.0
 11
-106.627072
 21
56.792162
 31
0.0
  0
LINE
  8
WING
  6
CONTINUOUS
 62
     1
  5
86C
 10
-106.627072
 20
56.792162
 30
0.0
 11
-106.255212
 21
57.005963
 31
0.0
  0
LINE
  8
WING
  6
CONTINUOUS
 62
     1
  5
86D
 10
-106.255212
 20
57.005963
 30
0.0
 11
-105.881918
 21
57.217112
 31
0.0
  0
LINE
  8
WING
  6
CONTINUOUS
 62
     1
  5
86E
 10
-105.881918
 20
57.217112
 30
0.0
 11
-105.50691
 21
57.425094
 31
0.0
  0
LINE
  8
WING
  6
CONTINUOUS
 62
     1
  5
86F
 10
-105.50691
 20
57.425094
 30
0.0
 11
-105.129908
 21
57.629392
 31
0.0
  0
LINE
  8
WING
  6
CONTINUOUS
 62
     1
  5
870
 10
-105.129908
 20
57.629392
 30
0.0
 11
-104.750632
 21
57.829487
 31
0.0
  0
LINE
  8
WING
  6
CONTINUOUS
 62
     1
  5
871
 10
-104.750632
 20
57.829487
 30
0.0
 11
-104.368803
 21
58.024865
 31
0.0
  0
LINE
  8
WING
  6
CONTINUOUS
 62
     1
  5
872
 10
-104.368803
 20
58.024865
 30
0.0
 11
-103.984141
 21
58.215006
 31
0.0
  0
LINE
  8
WING
  6
CONTINUOUS
 62
     1
  5
873
 10
-103.984141
 20
58.215006
 30
0.0
 11
-103.596366
 21
58.399396
 31
0.0
  0
LINE
  8
WING
  6
CONTINUOUS
 62
     1
  5
874
 10
-103.596366
 20
58.399396
 30
0.0
 11
-103.142379
 21
58.608351
 31
0.0
  0
LINE
  8
WING
  6
CONTINUOUS
 62
     1
  5
875
 10
-103.142379
 20
58.608351
 30
0.0
 11
-102.686666
 21
58.813036
 31
0.0
  0
LINE
  8
WING
  6
CONTINUOUS
 62
     1
  5
876
 10
-102.686666
 20
58.813036
 30
0.0
 11
-102.229137
 21
59.013226
 31
0.0
  0
LINE
  8
WING
  6
CONTINUOUS
 62
     1
  5
877
 10
-102.229137
 20
59.013226
 30
0.0
 11
-101.769701
 21
59.208701
 31
0.0
  0
LINE
  8
WING
  6
CONTINUOUS
 62
     1
  5
878
 10
-101.769701
 20
59.208701
 30
0.0
 11
-101.30827
 21
59.399237
 31
0.0
  0
LINE
  8
WING
  6
CONTINUOUS
 62
     1
  5
879
 10
-101.30827
 20
59.399237
 30
0.0
 11
-100.844752
 21
59.584612
 31
0.0
  0
LINE
  8
WING
  6
CONTINUOUS
 62
     1
  5
87A
 10
-100.844752
 20
59.584612
 30
0.0
 11
-100.379059
 21
59.764604
 31
0.0
  0
LINE
  8
WING
  6
CONTINUOUS
 62
     1
  5
87B
 10
-100.379059
 20
59.764604
 30
0.0
 11
-99.9111
 21
59.93899
 31
0.0
  0
LINE
  8
WING
  6
CONTINUOUS
 62
     1
  5
87C
 10
-99.9111
 20
59.93899
 30
0.0
 11
-99.440785
 21
60.107547
 31
0.0
  0
LINE
  8
WING
  6
CONTINUOUS
 62
     1
  5
87D
 10
-99.440785
 20
60.107547
 30
0.0
 11
-98.968025
 21
60.270054
 31
0.0
  0
LINE
  8
WING
  6
CONTINUOUS
 62
     1
  5
87E
 10
-98.968025
 20
60.270054
 30
0.0
 11
-98.426158
 21
60.447039
 31
0.0
  0
LINE
  8
WING
  6
CONTINUOUS
 62
     1
  5
87F
 10
-98.426158
 20
60.447039
 30
0.0
 11
-97.881855
 21
60.615292
 31
0.0
  0
LINE
  8
WING
  6
CONTINUOUS
 62
     1
  5
880
 10
-97.881855
 20
60.615292
 30
0.0
 11
-97.335472
 21
60.776095
 31
0.0
  0
LINE
  8
WING
  6
CONTINUOUS
 62
     1
  5
881
 10
-97.335472
 20
60.776095
 30
0.0
 11
-96.787368
 21
60.930726
 31
0.0
  0
LINE
  8
WING
  6
CONTINUOUS
 62
     1
  5
882
 10
-96.787368
 20
60.930726
 30
0.0
 11
-96.237899
 21
61.080465
 31
0.0
  0
LINE
  8
WING
  6
CONTINUOUS
 62
     1
  5
883
 10
-96.237899
 20
61.080465
 30
0.0
 11
-95.687423
 21
61.226594
 31
0.0
  0
LINE
  8
WING
  6
CONTINUOUS
 62
     1
  5
884
 10
-95.687423
 20
61.226594
 30
0.0
 11
-95.136296
 21
61.370391
 31
0.0
  0
LINE
  8
WING
  6
CONTINUOUS
 62
     1
  5
885
 10
-95.136296
 20
61.370391
 30
0.0
 11
-94.584876
 21
61.513137
 31
0.0
  0
LINE
  8
WING
  6
CONTINUOUS
 62
     1
  5
886
 10
-94.584876
 20
61.513137
 30
0.0
 11
-94.033519
 21
61.656111
 31
0.0
  0
LINE
  8
WING
  6
CONTINUOUS
 62
     1
  5
887
 10
-94.033519
 20
61.656111
 30
0.0
 11
-93.482583
 21
61.800593
 31
0.0
  0
LINE
  8
WING
  6
CONTINUOUS
 62
     1
  5
888
 10
-93.482583
 20
61.800593
 30
0.0
 11
-93.004533
 21
61.927399
 31
0.0
  0
LINE
  8
WING
  6
CONTINUOUS
 62
     1
  5
889
 10
-93.004533
 20
61.927399
 30
0.0
 11
-92.526522
 21
62.054364
 31
0.0
  0
LINE
  8
WING
  6
CONTINUOUS
 62
     1
  5
88A
 10
-92.526522
 20
62.054364
 30
0.0
 11
-92.048375
 21
62.180783
 31
0.0
  0
LINE
  8
WING
  6
CONTINUOUS
 62
     1
  5
88B
 10
-92.048375
 20
62.180783
 30
0.0
 11
-91.569918
 21
62.305949
 31
0.0
  0
LINE
  8
WING
  6
CONTINUOUS
 62
     1
  5
88C
 10
-91.569918
 20
62.305949
 30
0.0
 11
-91.090974
 21
62.429153
 31
0.0
  0
LINE
  8
WING
  6
CONTINUOUS
 62
     1
  5
88D
 10
-91.090974
 20
62.429153
 30
0.0
 11
-90.611368
 21
62.549689
 31
0.0
  0
LINE
  8
WING
  6
CONTINUOUS
 62
     1
  5
88E
 10
-90.611368
 20
62.549689
 30
0.0
 11
-90.130926
 21
62.66685
 31
0.0
  0
LINE
  8
WING
  6
CONTINUOUS
 62
     1
  5
88F
 10
-90.130926
 20
62.66685
 30
0.0
 11
-89.649471
 21
62.779929
 31
0.0
  0
LINE
  8
WING
  6
CONTINUOUS
 62
     1
  5
890
 10
-89.649471
 20
62.779929
 30
0.0
 11
-89.166828
 21
62.888219
 31
0.0
  0
LINE
  8
WING
  6
CONTINUOUS
 62
     1
  5
891
 10
-89.166828
 20
62.888219
 30
0.0
 11
-88.682822
 21
62.991012
 31
0.0
  0
LINE
  8
WING
  6
CONTINUOUS
 62
     1
  5
892
 10
-88.682822
 20
62.991012
 30
0.0
 11
-88.256904
 21
63.075619
 31
0.0
  0
LINE
  8
WING
  6
CONTINUOUS
 62
     1
  5
893
 10
-88.256904
 20
63.075619
 30
0.0
 11
-87.830109
 21
63.1547
 31
0.0
  0
LINE
  8
WING
  6
CONTINUOUS
 62
     1
  5
894
 10
-87.830109
 20
63.1547
 30
0.0
 11
-87.402547
 21
63.228947
 31
0.0
  0
LINE
  8
WING
  6
CONTINUOUS
 62
     1
  5
895
 10
-87.402547
 20
63.228947
 30
0.0
 11
-86.974326
 21
63.299048
 31
0.0
  0
LINE
  8
WING
  6
CONTINUOUS
 62
     1
  5
896
 10
-86.974326
 20
63.299048
 30
0.0
 11
-86.545557
 21
63.365695
 31
0.0
  0
LINE
  8
WING
  6
CONTINUOUS
 62
     1
  5
897
 10
-86.545557
 20
63.365695
 30
0.0
 11
-86.11635
 21
63.429576
 31
0.0
  0
LINE
  8
WING
  6
CONTINUOUS
 62
     1
  5
898
 10
-86.11635
 20
63.429576
 30
0.0
 11
-85.686813
 21
63.491383
 31
0.0
  0
LINE
  8
WING
  6
CONTINUOUS
 62
     1
  5
899
 10
-85.686813
 20
63.491383
 30
0.0
 11
-85.257056
 21
63.551804
 31
0.0
  0
LINE
  8
WING
  6
CONTINUOUS
 62
     1
  5
89A
 10
-85.257056
 20
63.551804
 30
0.0
 11
-84.827189
 21
63.611531
 31
0.0
  0
LINE
  8
WING
  6
CONTINUOUS
 62
     1
  5
89B
 10
-84.827189
 20
63.611531
 30
0.0
 11
-84.397321
 21
63.671252
 31
0.0
  0
LINE
  8
WING
  6
CONTINUOUS
 62
     1
  5
89C
 10
-84.397321
 20
63.671252
 30
0.0
 11
-83.743769
 21
63.76153
 31
0.0
  0
LINE
  8
WING
  6
CONTINUOUS
 62
     1
  5
89D
 10
-83.743769
 20
63.76153
 30
0.0
 11
-83.090002
 21
63.850112
 31
0.0
  0
LINE
  8
WING
  6
CONTINUOUS
 62
     1
  5
89E
 10
-83.090002
 20
63.850112
 30
0.0
 11
-82.436024
 21
63.937031
 31
0.0
  0
LINE
  8
WING
  6
CONTINUOUS
 62
     1
  5
89F
 10
-82.436024
 20
63.937031
 30
0.0
 11
-81.781839
 21
64.022317
 31
0.0
  0
LINE
  8
WING
  6
CONTINUOUS
 62
     1
  5
8A0
 10
-81.781839
 20
64.022317
 30
0.0
 11
-81.127451
 21
64.106001
 31
0.0
  0
LINE
  8
WING
  6
CONTINUOUS
 62
     1
  5
8A1
 10
-81.127451
 20
64.106001
 30
0.0
 11
-80.472864
 21
64.188116
 31
0.0
  0
LINE
  8
WING
  6
CONTINUOUS
 62
     1
  5
8A2
 10
-80.472864
 20
64.188116
 30
0.0
 11
-79.818082
 21
64.268693
 31
0.0
  0
LINE
  8
WING
  6
CONTINUOUS
 62
     1
  5
8A3
 10
-79.818082
 20
64.268693
 30
0.0
 11
-79.163108
 21
64.347762
 31
0.0
  0
LINE
  8
WING
  6
CONTINUOUS
 62
     1
  5
8A4
 10
-79.163108
 20
64.347762
 30
0.0
 11
-78.507947
 21
64.425356
 31
0.0
  0
LINE
  8
WING
  6
CONTINUOUS
 62
     1
  5
8A5
 10
-78.507947
 20
64.425356
 30
0.0
 11
-77.852603
 21
64.501505
 31
0.0
  0
LINE
  8
WING
  6
CONTINUOUS
 62
     1
  5
8A6
 10
-77.852603
 20
64.501505
 30
0.0
 11
-77.447307
 21
64.527781
 31
0.0
  0
LINE
  8
WING
  6
CONTINUOUS
 62
     1
  5
8A7
 10
-77.447307
 20
64.527781
 30
0.0
 11
-77.042064
 21
64.5549
 31
0.0
  0
LINE
  8
WING
  6
CONTINUOUS
 62
     1
  5
8A8
 10
-77.042064
 20
64.5549
 30
0.0
 11
-76.636851
 21
64.582499
 31
0.0
  0
LINE
  8
WING
  6
CONTINUOUS
 62
     1
  5
8A9
 10
-76.636851
 20
64.582499
 30
0.0
 11
-76.231646
 21
64.610219
 31
0.0
  0
LINE
  8
WING
  6
CONTINUOUS
 62
     1
  5
8AA
 10
-76.231646
 20
64.610219
 30
0.0
 11
-75.826426
 21
64.637698
 31
0.0
  0
LINE
  8
WING
  6
CONTINUOUS
 62
     1
  5
8AB
 10
-75.826426
 20
64.637698
 30
0.0
 11
-75.421168
 21
64.664575
 31
0.0
  0
LINE
  8
WING
  6
CONTINUOUS
 62
     1
  5
8AC
 10
-75.421168
 20
64.664575
 30
0.0
 11
-75.015848
 21
64.690491
 31
0.0
  0
LINE
  8
WING
  6
CONTINUOUS
 62
     1
  5
8AD
 10
-75.015848
 20
64.690491
 30
0.0
 11
-74.610445
 21
64.715084
 31
0.0
  0
LINE
  8
WING
  6
CONTINUOUS
 62
     1
  5
8AE
 10
-74.610445
 20
64.715084
 30
0.0
 11
-74.204935
 21
64.737993
 31
0.0
  0
LINE
  8
WING
  6
CONTINUOUS
 62
     1
  5
8AF
 10
-74.204935
 20
64.737993
 30
0.0
 11
-73.799294
 21
64.758858
 31
0.0
  0
LINE
  8
WING
  6
CONTINUOUS
 62
     1
  5
8B0
 10
-73.799294
 20
64.758858
 30
0.0
 11
-73.278353
 21
64.783514
 31
0.0
  0
LINE
  8
WING
  6
CONTINUOUS
 62
     1
  5
8B1
 10
-73.278353
 20
64.783514
 30
0.0
 11
-72.757363
 21
64.806866
 31
0.0
  0
LINE
  8
WING
  6
CONTINUOUS
 62
     1
  5
8B2
 10
-72.757363
 20
64.806866
 30
0.0
 11
-72.236327
 21
64.828956
 31
0.0
  0
LINE
  8
WING
  6
CONTINUOUS
 62
     1
  5
8B3
 10
-72.236327
 20
64.828956
 30
0.0
 11
-71.715245
 21
64.849828
 31
0.0
  0
LINE
  8
WING
  6
CONTINUOUS
 62
     1
  5
8B4
 10
-71.715245
 20
64.849828
 30
0.0
 11
-71.19412
 21
64.869525
 31
0.0
  0
LINE
  8
WING
  6
CONTINUOUS
 62
     1
  5
8B5
 10
-71.19412
 20
64.869525
 30
0.0
 11
-70.672953
 21
64.888089
 31
0.0
  0
LINE
  8
WING
  6
CONTINUOUS
 62
     1
  5
8B6
 10
-70.672953
 20
64.888089
 30
0.0
 11
-70.151746
 21
64.905563
 31
0.0
  0
LINE
  8
WING
  6
CONTINUOUS
 62
     1
  5
8B7
 10
-70.151746
 20
64.905563
 30
0.0
 11
-69.6305
 21
64.921989
 31
0.0
  0
LINE
  8
WING
  6
CONTINUOUS
 62
     1
  5
8B8
 10
-69.6305
 20
64.921989
 30
0.0
 11
-69.109216
 21
64.937412
 31
0.0
  0
LINE
  8
WING
  6
CONTINUOUS
 62
     1
  5
8B9
 10
-69.109216
 20
64.937412
 30
0.0
 11
-68.587897
 21
64.951872
 31
0.0
  0
LINE
  8
WING
  6
CONTINUOUS
 62
     1
  5
8BA
 10
-68.587897
 20
64.951872
 30
0.0
 11
-68.092568
 21
64.96453
 31
0.0
  0
LINE
  8
WING
  6
CONTINUOUS
 62
     1
  5
8BB
 10
-68.092568
 20
64.96453
 30
0.0
 11
-67.597219
 21
64.975959
 31
0.0
  0
LINE
  8
WING
  6
CONTINUOUS
 62
     1
  5
8BC
 10
-67.597219
 20
64.975959
 30
0.0
 11
-67.101852
 21
64.98623
 31
0.0
  0
LINE
  8
WING
  6
CONTINUOUS
 62
     1
  5
8BD
 10
-67.101852
 20
64.98623
 30
0.0
 11
-66.606467
 21
64.995416
 31
0.0
  0
LINE
  8
WING
  6
CONTINUOUS
 62
     1
  5
8BE
 10
-66.606467
 20
64.995416
 30
0.0
 11
-66.111065
 21
65.003587
 31
0.0
  0
LINE
  8
WING
  6
CONTINUOUS
 62
     1
  5
8BF
 10
-66.111065
 20
65.003587
 30
0.0
 11
-65.615649
 21
65.010815
 31
0.0
  0
LINE
  8
WING
  6
CONTINUOUS
 62
     1
  5
8C0
 10
-65.615649
 20
65.010815
 30
0.0
 11
-65.120218
 21
65.017172
 31
0.0
  0
LINE
  8
WING
  6
CONTINUOUS
 62
     1
  5
8C1
 10
-65.120218
 20
65.017172
 30
0.0
 11
-64.624774
 21
65.02273
 31
0.0
  0
LINE
  8
WING
  6
CONTINUOUS
 62
     1
  5
8C2
 10
-64.624774
 20
65.02273
 30
0.0
 11
-64.129319
 21
65.027559
 31
0.0
  0
LINE
  8
WING
  6
CONTINUOUS
 62
     1
  5
8C3
 10
-64.129319
 20
65.027559
 30
0.0
 11
-63.633853
 21
65.031731
 31
0.0
  0
LINE
  8
WING
  6
HIDDEN2
 62
     1
  5
8C4
 10
-32.193716
 20
-70.87034
 30
0.0
 11
-29.943716
 21
-70.87034
 31
0.0
  0
LINE
  8
WING
  6
HIDDEN2
 62
     1
  5
8C5
 10
-29.943716
 20
-70.87034
 30
0.0
 11
-27.693716
 21
-70.87034
 31
0.0
  0
LINE
  8
WING
  6
CONTINUOUS
 62
     1
  5
8C6
 10
-119.441788
 20
-75.67951
 30
0.0
 11
-119.185543
 21
-75.587354
 31
0.0
  0
LINE
  8
WING
  6
CONTINUOUS
 62
     1
  5
8C7
 10
-119.185543
 20
-75.587354
 30
0.0
 11
-118.929522
 21
-75.494574
 31
0.0
  0
LINE
  8
WING
  6
CONTINUOUS
 62
     1
  5
8C8
 10
-118.929522
 20
-75.494574
 30
0.0
 11
-118.673628
 21
-75.401438
 31
0.0
  0
LINE
  8
WING
  6
CONTINUOUS
 62
     1
  5
8C9
 10
-118.673628
 20
-75.401438
 30
0.0
 11
-118.417766
 21
-75.308212
 31
0.0
  0
LINE
  8
WING
  6
CONTINUOUS
 62
     1
  5
8CA
 10
-118.417766
 20
-75.308212
 30
0.0
 11
-118.16184
 21
-75.215164
 31
0.0
  0
LINE
  8
WING
  6
CONTINUOUS
 62
     1
  5
8CB
 10
-118.16184
 20
-75.215164
 30
0.0
 11
-117.905755
 21
-75.122563
 31
0.0
  0
LINE
  8
WING
  6
CONTINUOUS
 62
     1
  5
8CC
 10
-117.905755
 20
-75.122563
 30
0.0
 11
-117.649415
 21
-75.030674
 31
0.0
  0
LINE
  8
WING
  6
CONTINUOUS
 62
     1
  5
8CD
 10
-117.649415
 20
-75.030674
 30
0.0
 11
-117.392723
 21
-74.939766
 31
0.0
  0
LINE
  8
WING
  6
CONTINUOUS
 62
     1
  5
8CE
 10
-117.392723
 20
-74.939766
 30
0.0
 11
-117.135585
 21
-74.850107
 31
0.0
  0
LINE
  8
WING
  6
CONTINUOUS
 62
     1
  5
8CF
 10
-117.135585
 20
-74.850107
 30
0.0
 11
-116.877904
 21
-74.761963
 31
0.0
  0
LINE
  8
WING
  6
CONTINUOUS
 62
     1
  5
8D0
 10
-116.877904
 20
-74.761963
 30
0.0
 11
-116.41132
 21
-74.604099
 31
0.0
  0
LINE
  8
WING
  6
CONTINUOUS
 62
     1
  5
8D1
 10
-116.41132
 20
-74.604099
 30
0.0
 11
-115.944661
 21
-74.446462
 31
0.0
  0
LINE
  8
WING
  6
CONTINUOUS
 62
     1
  5
8D2
 10
-115.944661
 20
-74.446462
 30
0.0
 11
-115.477834
 21
-74.289341
 31
0.0
  0
LINE
  8
WING
  6
CONTINUOUS
 62
     1
  5
8D3
 10
-115.477834
 20
-74.289341
 30
0.0
 11
-115.010743
 21
-74.133023
 31
0.0
  0
LINE
  8
WING
  6
CONTINUOUS
 62
     1
  5
8D4
 10
-115.010743
 20
-74.133023
 30
0.0
 11
-114.543294
 21
-73.977797
 31
0.0
  0
LINE
  8
WING
  6
CONTINUOUS
 62
     1
  5
8D5
 10
-114.543294
 20
-73.977797
 30
0.0
 11
-114.075393
 21
-73.823952
 31
0.0
  0
LINE
  8
WING
  6
CONTINUOUS
 62
     1
  5
8D6
 10
-114.075393
 20
-73.823952
 30
0.0
 11
-113.606945
 21
-73.671774
 31
0.0
  0
LINE
  8
WING
  6
CONTINUOUS
 62
     1
  5
8D7
 10
-113.606945
 20
-73.671774
 30
0.0
 11
-113.137856
 21
-73.521553
 31
0.0
  0
LINE
  8
WING
  6
CONTINUOUS
 62
     1
  5
8D8
 10
-113.137856
 20
-73.521553
 30
0.0
 11
-112.668032
 21
-73.373577
 31
0.0
  0
LINE
  8
WING
  6
CONTINUOUS
 62
     1
  5
8D9
 10
-112.668032
 20
-73.373577
 30
0.0
 11
-112.197377
 21
-73.228133
 31
0.0
  0
LINE
  8
WING
  6
CONTINUOUS
 62
     1
  5
8DA
 10
-112.197377
 20
-73.228133
 30
0.0
 11
-111.633907
 21
-73.055877
 31
0.0
  0
LINE
  8
WING
  6
CONTINUOUS
 62
     1
  5
8DB
 10
-111.633907
 20
-73.055877
 30
0.0
 11
-111.070286
 21
-72.884149
 31
0.0
  0
LINE
  8
WING
  6
CONTINUOUS
 62
     1
  5
8DC
 10
-111.070286
 20
-72.884149
 30
0.0
 11
-110.506345
 21
-72.713527
 31
0.0
  0
LINE
  8
WING
  6
CONTINUOUS
 62
     1
  5
8DD
 10
-110.506345
 20
-72.713527
 30
0.0
 11
-109.941919
 21
-72.544593
 31
0.0
  0
LINE
  8
WING
  6
CONTINUOUS
 62
     1
  5
8DE
 10
-109.941919
 20
-72.544593
 30
0.0
 11
-109.376841
 21
-72.377928
 31
0.0
  0
LINE
  8
WING
  6
CONTINUOUS
 62
     1
  5
8DF
 10
-109.376841
 20
-72.377928
 30
0.0
 11
-108.810942
 21
-72.214111
 31
0.0
  0
LINE
  8
WING
  6
CONTINUOUS
 62
     1
  5
8E0
 10
-108.810942
 20
-72.214111
 30
0.0
 11
-108.244057
 21
-72.053723
 31
0.0
  0
LINE
  8
WING
  6
CONTINUOUS
 62
     1
  5
8E1
 10
-108.244057
 20
-72.053723
 30
0.0
 11
-107.676018
 21
-71.897345
 31
0.0
  0
LINE
  8
WING
  6
CONTINUOUS
 62
     1
  5
8E2
 10
-107.676018
 20
-71.897345
 30
0.0
 11
-107.106659
 21
-71.745556
 31
0.0
  0
LINE
  8
WING
  6
CONTINUOUS
 62
     1
  5
8E3
 10
-107.106659
 20
-71.745556
 30
0.0
 11
-106.535811
 21
-71.598938
 31
0.0
  0
LINE
  8
WING
  6
CONTINUOUS
 62
     1
  5
8E4
 10
-106.535811
 20
-71.598938
 30
0.0
 11
-105.995297
 21
-71.466412
 31
0.0
  0
LINE
  8
WING
  6
CONTINUOUS
 62
     1
  5
8E5
 10
-105.995297
 20
-71.466412
 30
0.0
 11
-105.453499
 21
-71.339883
 31
0.0
  0
LINE
  8
WING
  6
CONTINUOUS
 62
     1
  5
8E6
 10
-105.453499
 20
-71.339883
 30
0.0
 11
-104.910611
 21
-71.218445
 31
0.0
  0
LINE
  8
WING
  6
CONTINUOUS
 62
     1
  5
8E7
 10
-104.910611
 20
-71.218445
 30
0.0
 11
-104.366828
 21
-71.101193
 31
0.0
  0
LINE
  8
WING
  6
CONTINUOUS
 62
     1
  5
8E8
 10
-104.366828
 20
-71.101193
 30
0.0
 11
-103.822343
 21
-70.98722
 31
0.0
  0
LINE
  8
WING
  6
CONTINUOUS
 62
     1
  5
8E9
 10
-103.822343
 20
-70.98722
 30
0.0
 11
-103.27735
 21
-70.87562
 31
0.0
  0
LINE
  8
WING
  6
CONTINUOUS
 62
     1
  5
8EA
 10
-103.27735
 20
-70.87562
 30
0.0
 11
-102.732044
 21
-70.765487
 31
0.0
  0
LINE
  8
WING
  6
CONTINUOUS
 62
     1
  5
8EB
 10
-102.732044
 20
-70.765487
 30
0.0
 11
-102.186617
 21
-70.655913
 31
0.0
  0
LINE
  8
WING
  6
CONTINUOUS
 62
     1
  5
8EC
 10
-102.186617
 20
-70.655913
 30
0.0
 11
-101.641265
 21
-70.545994
 31
0.0
  0
LINE
  8
WING
  6
CONTINUOUS
 62
     1
  5
8ED
 10
-101.641265
 20
-70.545994
 30
0.0
 11
-101.096181
 21
-70.434822
 31
0.0
  0
LINE
  8
WING
  6
CONTINUOUS
 62
     1
  5
8EE
 10
-101.096181
 20
-70.434822
 30
0.0
 11
-100.597697
 21
-70.331948
 31
0.0
  0
LINE
  8
WING
  6
CONTINUOUS
 62
     1
  5
8EF
 10
-100.597697
 20
-70.331948
 30
0.0
 11
-100.09927
 21
-70.228788
 31
0.0
  0
LINE
  8
WING
  6
CONTINUOUS
 62
     1
  5
8F0
 10
-100.09927
 20
-70.228788
 30
0.0
 11
-99.600801
 21
-70.125836
 31
0.0
  0
LINE
  8
WING
  6
CONTINUOUS
 62
     1
  5
8F1
 10
-99.600801
 20
-70.125836
 30
0.0
 11
-99.102195
 21
-70.023585
 31
0.0
  0
LINE
  8
WING
  6
CONTINUOUS
 62
     1
  5
8F2
 10
-99.102195
 20
-70.023585
 30
0.0
 11
-98.603354
 21
-69.922528
 31
0.0
  0
LINE
  8
WING
  6
CONTINUOUS
 62
     1
  5
8F3
 10
-98.603354
 20
-69.922528
 30
0.0
 11
-98.104181
 21
-69.823158
 31
0.0
  0
LINE
  8
WING
  6
CONTINUOUS
 62
     1
  5
8F4
 10
-98.104181
 20
-69.823158
 30
0.0
 11
-97.60458
 21
-69.725969
 31
0.0
  0
LINE
  8
WING
  6
CONTINUOUS
 62
     1
  5
8F5
 10
-97.60458
 20
-69.725969
 30
0.0
 11
-97.104451
 21
-69.631455
 31
0.0
  0
LINE
  8
WING
  6
CONTINUOUS
 62
     1
  5
8F6
 10
-97.104451
 20
-69.631455
 30
0.0
 11
-96.6037
 21
-69.540108
 31
0.0
  0
LINE
  8
WING
  6
CONTINUOUS
 62
     1
  5
8F7
 10
-96.6037
 20
-69.540108
 30
0.0
 11
-96.102229
 21
-69.452423
 31
0.0
  0
LINE
  8
WING
  6
CONTINUOUS
 62
     1
  5
8F8
 10
-96.102229
 20
-69.452423
 30
0.0
 11
-95.424461
 21
-69.338098
 31
0.0
  0
LINE
  8
WING
  6
CONTINUOUS
 62
     1
  5
8F9
 10
-95.424461
 20
-69.338098
 30
0.0
 11
-94.746287
 21
-69.226457
 31
0.0
  0
LINE
  8
WING
  6
CONTINUOUS
 62
     1
  5
8FA
 10
-94.746287
 20
-69.226457
 30
0.0
 11
-94.067715
 21
-69.117433
 31
0.0
  0
LINE
  8
WING
  6
CONTINUOUS
 62
     1
  5
8FB
 10
-94.067715
 20
-69.117433
 30
0.0
 11
-93.388757
 21
-69.01096
 31
0.0
  0
LINE
  8
WING
  6
CONTINUOUS
 62
     1
  5
8FC
 10
-93.388757
 20
-69.01096
 30
0.0
 11
-92.709422
 21
-68.906972
 31
0.0
  0
LINE
  8
WING
  6
CONTINUOUS
 62
     1
  5
8FD
 10
-92.709422
 20
-68.906972
 30
0.0
 11
-92.02972
 21
-68.805401
 31
0.0
  0
LINE
  8
WING
  6
CONTINUOUS
 62
     1
  5
8FE
 10
-92.02972
 20
-68.805401
 30
0.0
 11
-91.349661
 21
-68.706182
 31
0.0
  0
LINE
  8
WING
  6
CONTINUOUS
 62
     1
  5
8FF
 10
-91.349661
 20
-68.706182
 30
0.0
 11
-90.669256
 21
-68.609247
 31
0.0
  0
LINE
  8
WING
  6
CONTINUOUS
 62
     1
  5
900
 10
-90.669256
 20
-68.609247
 30
0.0
 11
-89.988515
 21
-68.514531
 31
0.0
  0
LINE
  8
WING
  6
CONTINUOUS
 62
     1
  5
901
 10
-89.988515
 20
-68.514531
 30
0.0
 11
-89.307447
 21
-68.421966
 31
0.0
  0
LINE
  8
WING
  6
CONTINUOUS
 62
     1
  5
902
 10
-89.307447
 20
-68.421966
 30
0.0
 11
-88.410503
 21
-68.303142
 31
0.0
  0
LINE
  8
WING
  6
CONTINUOUS
 62
     1
  5
903
 10
-88.410503
 20
-68.303142
 30
0.0
 11
-87.513186
 21
-68.187382
 31
0.0
  0
LINE
  8
WING
  6
CONTINUOUS
 62
     1
  5
904
 10
-87.513186
 20
-68.187382
 30
0.0
 11
-86.615537
 21
-68.074364
 31
0.0
  0
LINE
  8
WING
  6
CONTINUOUS
 62
     1
  5
905
 10
-86.615537
 20
-68.074364
 30
0.0
 11
-85.717595
 21
-67.96377
 31
0.0
  0
LINE
  8
WING
  6
CONTINUOUS
 62
     1
  5
906
 10
-85.717595
 20
-67.96377
 30
0.0
 11
-84.819397
 21
-67.855278
 31
0.0
  0
LINE
  8
WING
  6
CONTINUOUS
 62
     1
  5
907
 10
-84.819397
 20
-67.855278
 30
0.0
 11
-83.920984
 21
-67.748569
 31
0.0
  0
LINE
  8
WING
  6
CONTINUOUS
 62
     1
  5
908
 10
-83.920984
 20
-67.748569
 30
0.0
 11
-83.022393
 21
-67.643322
 31
0.0
  0
LINE
  8
WING
  6
CONTINUOUS
 62
     1
  5
909
 10
-83.022393
 20
-67.643322
 30
0.0
 11
-82.123663
 21
-67.539217
 31
0.0
  0
LINE
  8
WING
  6
CONTINUOUS
 62
     1
  5
90A
 10
-82.123663
 20
-67.539217
 30
0.0
 11
-81.224834
 21
-67.435934
 31
0.0
  0
LINE
  8
WING
  6
CONTINUOUS
 62
     1
  5
90B
 10
-81.224834
 20
-67.435934
 30
0.0
 11
-80.325945
 21
-67.333153
 31
0.0
  0
LINE
  8
WING
  6
CONTINUOUS
 62
     1
  5
90C
 10
-80.325945
 20
-67.333153
 30
0.0
 11
-79.67214
 21
-67.256567
 31
0.0
  0
LINE
  8
WING
  6
CONTINUOUS
 62
     1
  5
90D
 10
-79.67214
 20
-67.256567
 30
0.0
 11
-79.018618
 21
-67.177287
 31
0.0
  0
LINE
  8
WING
  6
CONTINUOUS
 62
     1
  5
90E
 10
-79.018618
 20
-67.177287
 30
0.0
 11
-78.3652
 21
-67.097003
 31
0.0
  0
LINE
  8
WING
  6
CONTINUOUS
 62
     1
  5
90F
 10
-78.3652
 20
-67.097003
 30
0.0
 11
-77.711711
 21
-67.017406
 31
0.0
  0
LINE
  8
WING
  6
CONTINUOUS
 62
     1
  5
910
 10
-77.711711
 20
-67.017406
 30
0.0
 11
-77.057973
 21
-66.940187
 31
0.0
  0
LINE
  8
WING
  6
CONTINUOUS
 62
     1
  5
911
 10
-77.057973
 20
-66.940187
 30
0.0
 11
-76.403809
 21
-66.867039
 31
0.0
  0
LINE
  8
WING
  6
CONTINUOUS
 62
     1
  5
912
 10
-76.403809
 20
-66.867039
 30
0.0
 11
-75.749044
 21
-66.799652
 31
0.0
  0
LINE
  8
WING
  6
CONTINUOUS
 62
     1
  5
913
 10
-75.749044
 20
-66.799652
 30
0.0
 11
-75.093499
 21
-66.739717
 31
0.0
  0
LINE
  8
WING
  6
CONTINUOUS
 62
     1
  5
914
 10
-75.093499
 20
-66.739717
 30
0.0
 11
-74.436999
 21
-66.688926
 31
0.0
  0
LINE
  8
WING
  6
CONTINUOUS
 62
     1
  5
915
 10
-74.436999
 20
-66.688926
 30
0.0
 11
-73.779367
 21
-66.648969
 31
0.0
  0
LINE
  8
WING
  6
CONTINUOUS
 62
     1
  5
916
 10
-73.779367
 20
-66.648969
 30
0.0
 11
-72.390903
 21
-66.583885
 31
0.0
  0
LINE
  8
WING
  6
CONTINUOUS
 62
     1
  5
917
 10
-72.390903
 20
-66.583885
 30
0.0
 11
-71.002126
 21
-66.530558
 31
0.0
  0
LINE
  8
WING
  6
CONTINUOUS
 62
     1
  5
918
 10
-71.002126
 20
-66.530558
 30
0.0
 11
-69.61309
 21
-66.486914
 31
0.0
  0
LINE
  8
WING
  6
CONTINUOUS
 62
     1
  5
919
 10
-69.61309
 20
-66.486914
 30
0.0
 11
-68.223851
 21
-66.450877
 31
0.0
  0
LINE
  8
WING
  6
CONTINUOUS
 62
     1
  5
91A
 10
-68.223851
 20
-66.450877
 30
0.0
 11
-66.834464
 21
-66.420374
 31
0.0
  0
LINE
  8
WING
  6
CONTINUOUS
 62
     1
  5
91B
 10
-66.834464
 20
-66.420374
 30
0.0
 11
-65.444985
 21
-66.393329
 31
0.0
  0
LINE
  8
WING
  6
CONTINUOUS
 62
     1
  5
91C
 10
-65.444985
 20
-66.393329
 30
0.0
 11
-64.055469
 21
-66.367667
 31
0.0
  0
LINE
  8
WING
  6
CONTINUOUS
 62
     1
  5
91D
 10
-64.055469
 20
-66.367667
 30
0.0
 11
-63.56168
 21
-66.358301
 31
0.0
  0
LINE
  8
WING
  6
CONTINUOUS
 62
     1
  5
91E
 10
-63.633853
 20
-66.37034
 30
0.0
 11
-29.943716
 21
-66.37034
 31
0.0
  0
POINT
  8
WING
  6
CONTINUOUS
 62
     1
  5
91F
 10
-29.943716
 20
-70.87034
 30
0.0
  0
POINT
  8
WING
  6
CONTINUOUS
 62
     1
  5
920
 10
-29.943716
 20
-66.37034
 30
0.0
  0
LINE
  8
WING
  6
CONTINUOUS
 62
     1
  5
921
 10
-29.943716
 20
-66.37034
 30
0.0
 11
3.746421
 21
-66.37034
 31
0.0
  0
LINE
  8
WING
  6
CONTINUOUS
 62
     1
  5
922
 10
60.469765
 20
-78.67951
 30
0.0
 11
60.469765
 21
-75.67951
 31
0.0
  0
LINE
  8
WING
  6
CONTINUOUS
 62
     1
  5
923
 10
-119.441788
 20
-78.67951
 30
0.0
 11
-119.183176
 21
-78.594223
 31
0.0
  0
LINE
  8
WING
  6
CONTINUOUS
 62
     1
  5
924
 10
-119.183176
 20
-78.594223
 30
0.0
 11
-118.924771
 21
-78.508306
 31
0.0
  0
LINE
  8
WING
  6
CONTINUOUS
 62
     1
  5
925
 10
-118.924771
 20
-78.508306
 30
0.0
 11
-118.666483
 21
-78.422029
 31
0.0
  0
LINE
  8
WING
  6
CONTINUOUS
 62
     1
  5
926
 10
-118.666483
 20
-78.422029
 30
0.0
 11
-118.408225
 21
-78.335662
 31
0.0
  0
LINE
  8
WING
  6
CONTINUOUS
 62
     1
  5
927
 10
-118.408225
 20
-78.335662
 30
0.0
 11
-118.149908
 21
-78.249475
 31
0.0
  0
LINE
  8
WING
  6
CONTINUOUS
 62
     1
  5
928
 10
-118.149908
 20
-78.249475
 30
0.0
 11
-117.891444
 21
-78.163738
 31
0.0
  0
LINE
  8
WING
  6
CONTINUOUS
 62
     1
  5
929
 10
-117.891444
 20
-78.163738
 30
0.0
 11
-117.632743
 21
-78.078721
 31
0.0
  0
LINE
  8
WING
  6
CONTINUOUS
 62
     1
  5
92A
 10
-117.632743
 20
-78.078721
 30
0.0
 11
-117.373718
 21
-77.994694
 31
0.0
  0
LINE
  8
WING
  6
CONTINUOUS
 62
     1
  5
92B
 10
-117.373718
 20
-77.994694
 30
0.0
 11
-117.114279
 21
-77.911926
 31
0.0
  0
LINE
  8
WING
  6
CONTINUOUS
 62
     1
  5
92C
 10
-117.114279
 20
-77.911926
 30
0.0
 11
-116.854339
 21
-77.830687
 31
0.0
  0
LINE
  8
WING
  6
CONTINUOUS
 62
     1
  5
92D
 10
-116.854339
 20
-77.830687
 30
0.0
 11
-116.38371
 21
-77.685327
 31
0.0
  0
LINE
  8
WING
  6
CONTINUOUS
 62
     1
  5
92E
 10
-116.38371
 20
-77.685327
 30
0.0
 11
-115.913012
 21
-77.540195
 31
0.0
  0
LINE
  8
WING
  6
CONTINUOUS
 62
     1
  5
92F
 10
-115.913012
 20
-77.540195
 30
0.0
 11
-115.442158
 21
-77.395584
 31
0.0
  0
LINE
  8
WING
  6
CONTINUOUS
 62
     1
  5
930
 10
-115.442158
 20
-77.395584
 30
0.0
 11
-114.971063
 21
-77.251783
 31
0.0
  0
LINE
  8
WING
  6
CONTINUOUS
 62
     1
  5
931
 10
-114.971063
 20
-77.251783
 30
0.0
 11
-114.49964
 21
-77.109082
 31
0.0
  0
LINE
  8
WING
  6
CONTINUOUS
 62
     1
  5
932
 10
-114.49964
 20
-77.109082
 30
0.0
 11
-114.027801
 21
-76.967774
 31
0.0
  0
LINE
  8
WING
  6
CONTINUOUS
 62
     1
  5
933
 10
-114.027801
 20
-76.967774
 30
0.0
 11
-113.55546
 21
-76.828148
 31
0.0
  0
LINE
  8
WING
  6
CONTINUOUS
 62
     1
  5
934
 10
-113.55546
 20
-76.828148
 30
0.0
 11
-113.082531
 21
-76.690494
 31
0.0
  0
LINE
  8
WING
  6
CONTINUOUS
 62
     1
  5
935
 10
-113.082531
 20
-76.690494
 30
0.0
 11
-112.608926
 21
-76.555104
 31
0.0
  0
LINE
  8
WING
  6
CONTINUOUS
 62
     1
  5
936
 10
-112.608926
 20
-76.555104
 30
0.0
 11
-112.134559
 21
-76.422268
 31
0.0
  0
LINE
  8
WING
  6
CONTINUOUS
 62
     1
  5
937
 10
-112.134559
 20
-76.422268
 30
0.0
 11
-111.566694
 21
-76.265105
 31
0.0
  0
LINE
  8
WING
  6
CONTINUOUS
 62
     1
  5
938
 10
-111.566694
 20
-76.265105
 30
0.0
 11
-110.998692
 21
-76.108474
 31
0.0
  0
LINE
  8
WING
  6
CONTINUOUS
 62
     1
  5
939
 10
-110.998692
 20
-76.108474
 30
0.0
 11
-110.430401
 21
-75.952958
 31
0.0
  0
LINE
  8
WING
  6
CONTINUOUS
 62
     1
  5
93A
 10
-110.430401
 20
-75.952958
 30
0.0
 11
-109.861669
 21
-75.799141
 31
0.0
  0
LINE
  8
WING
  6
CONTINUOUS
 62
     1
  5
93B
 10
-109.861669
 20
-75.799141
 30
0.0
 11
-109.292345
 21
-75.64761
 31
0.0
  0
LINE
  8
WING
  6
CONTINUOUS
 62
     1
  5
93C
 10
-109.292345
 20
-75.64761
 30
0.0
 11
-108.722278
 21
-75.498948
 31
0.0
  0
LINE
  8
WING
  6
CONTINUOUS
 62
     1
  5
93D
 10
-108.722278
 20
-75.498948
 30
0.0
 11
-108.151316
 21
-75.35374
 31
0.0
  0
LINE
  8
WING
  6
CONTINUOUS
 62
     1
  5
93E
 10
-108.151316
 20
-75.35374
 30
0.0
 11
-107.579307
 21
-75.212572
 31
0.0
  0
LINE
  8
WING
  6
CONTINUOUS
 62
     1
  5
93F
 10
-107.579307
 20
-75.212572
 30
0.0
 11
-107.006101
 21
-75.076026
 31
0.0
  0
LINE
  8
WING
  6
CONTINUOUS
 62
     1
  5
940
 10
-107.006101
 20
-75.076026
 30
0.0
 11
-106.431545
 21
-74.944689
 31
0.0
  0
LINE
  8
WING
  6
CONTINUOUS
 62
     1
  5
941
 10
-106.431545
 20
-74.944689
 30
0.0
 11
-105.887688
 21
-74.826629
 31
0.0
  0
LINE
  8
WING
  6
CONTINUOUS
 62
     1
  5
942
 10
-105.887688
 20
-74.826629
 30
0.0
 11
-105.342707
 21
-74.714599
 31
0.0
  0
LINE
  8
WING
  6
CONTINUOUS
 62
     1
  5
943
 10
-105.342707
 20
-74.714599
 30
0.0
 11
-104.796773
 21
-74.607688
 31
0.0
  0
LINE
  8
WING
  6
CONTINUOUS
 62
     1
  5
944
 10
-104.796773
 20
-74.607688
 30
0.0
 11
-104.250056
 21
-74.504984
 31
0.0
  0
LINE
  8
WING
  6
CONTINUOUS
 62
     1
  5
945
 10
-104.250056
 20
-74.504984
 30
0.0
 11
-103.702724
 21
-74.405577
 31
0.0
  0
LINE
  8
WING
  6
CONTINUOUS
 62
     1
  5
946
 10
-103.702724
 20
-74.405577
 30
0.0
 11
-103.154948
 21
-74.308556
 31
0.0
  0
LINE
  8
WING
  6
CONTINUOUS
 62
     1
  5
947
 10
-103.154948
 20
-74.308556
 30
0.0
 11
-102.606897
 21
-74.213009
 31
0.0
  0
LINE
  8
WING
  6
CONTINUOUS
 62
     1
  5
948
 10
-102.606897
 20
-74.213009
 30
0.0
 11
-102.058742
 21
-74.118025
 31
0.0
  0
LINE
  8
WING
  6
CONTINUOUS
 62
     1
  5
949
 10
-102.058742
 20
-74.118025
 30
0.0
 11
-101.510651
 21
-74.022693
 31
0.0
  0
LINE
  8
WING
  6
CONTINUOUS
 62
     1
  5
94A
 10
-101.510651
 20
-74.022693
 30
0.0
 11
-100.962795
 21
-73.926102
 31
0.0
  0
LINE
  8
WING
  6
CONTINUOUS
 62
     1
  5
94B
 10
-100.962795
 20
-73.926102
 30
0.0
 11
-100.461744
 21
-73.836564
 31
0.0
  0
LINE
  8
WING
  6
CONTINUOUS
 62
     1
  5
94C
 10
-100.461744
 20
-73.836564
 30
0.0
 11
-99.960742
 21
-73.746737
 31
0.0
  0
LINE
  8
WING
  6
CONTINUOUS
 62
     1
  5
94D
 10
-99.960742
 20
-73.746737
 30
0.0
 11
-99.459705
 21
-73.65712
 31
0.0
  0
LINE
  8
WING
  6
CONTINUOUS
 62
     1
  5
94E
 10
-99.459705
 20
-73.65712
 30
0.0
 11
-98.958549
 21
-73.568206
 31
0.0
  0
LINE
  8
WING
  6
CONTINUOUS
 62
     1
  5
94F
 10
-98.958549
 20
-73.568206
 30
0.0
 11
-98.457189
 21
-73.480493
 31
0.0
  0
LINE
  8
WING
  6
CONTINUOUS
 62
     1
  5
950
 10
-98.457189
 20
-73.480493
 30
0.0
 11
-97.955543
 21
-73.394475
 31
0.0
  0
LINE
  8
WING
  6
CONTINUOUS
 62
     1
  5
951
 10
-97.955543
 20
-73.394475
 30
0.0
 11
-97.453526
 21
-73.310649
 31
0.0
  0
LINE
  8
WING
  6
CONTINUOUS
 62
     1
  5
952
 10
-97.453526
 20
-73.310649
 30
0.0
 11
-96.951055
 21
-73.229511
 31
0.0
  0
LINE
  8
WING
  6
CONTINUOUS
 62
     1
  5
953
 10
-96.951055
 20
-73.229511
 30
0.0
 11
-96.448045
 21
-73.151555
 31
0.0
  0
LINE
  8
WING
  6
CONTINUOUS
 62
     1
  5
954
 10
-96.448045
 20
-73.151555
 30
0.0
 11
-95.944413
 21
-73.077279
 31
0.0
  0
LINE
  8
WING
  6
CONTINUOUS
 62
     1
  5
955
 10
-95.944413
 20
-73.077279
 30
0.0
 11
-95.263836
 21
-72.981076
 31
0.0
  0
LINE
  8
WING
  6
CONTINUOUS
 62
     1
  5
956
 10
-95.263836
 20
-72.981076
 30
0.0
 11
-94.582925
 21
-72.887566
 31
0.0
  0
LINE
  8
WING
  6
CONTINUOUS
 62
     1
  5
957
 10
-94.582925
 20
-72.887566
 30
0.0
 11
-93.901686
 21
-72.796684
 31
0.0
  0
LINE
  8
WING
  6
CONTINUOUS
 62
     1
  5
958
 10
-93.901686
 20
-72.796684
 30
0.0
 11
-93.220129
 21
-72.708362
 31
0.0
  0
LINE
  8
WING
  6
CONTINUOUS
 62
     1
  5
959
 10
-93.220129
 20
-72.708362
 30
0.0
 11
-92.538262
 21
-72.622533
 31
0.0
  0
LINE
  8
WING
  6
CONTINUOUS
 62
     1
  5
95A
 10
-92.538262
 20
-72.622533
 30
0.0
 11
-91.856092
 21
-72.539132
 31
0.0
  0
LINE
  8
WING
  6
CONTINUOUS
 62
     1
  5
95B
 10
-91.856092
 20
-72.539132
 30
0.0
 11
-91.173629
 21
-72.45809
 31
0.0
  0
LINE
  8
WING
  6
CONTINUOUS
 62
     1
  5
95C
 10
-91.173629
 20
-72.45809
 30
0.0
 11
-90.49088
 21
-72.379341
 31
0.0
  0
LINE
  8
WING
  6
CONTINUOUS
 62
     1
  5
95D
 10
-90.49088
 20
-72.379341
 30
0.0
 11
-89.807854
 21
-72.302819
 31
0.0
  0
LINE
  8
WING
  6
CONTINUOUS
 62
     1
  5
95E
 10
-89.807854
 20
-72.302819
 30
0.0
 11
-89.12456
 21
-72.228456
 31
0.0
  0
LINE
  8
WING
  6
CONTINUOUS
 62
     1
  5
95F
 10
-89.12456
 20
-72.228456
 30
0.0
 11
-88.224764
 21
-72.133603
 31
0.0
  0
LINE
  8
WING
  6
CONTINUOUS
 62
     1
  5
960
 10
-88.224764
 20
-72.133603
 30
0.0
 11
-87.324679
 21
-72.041822
 31
0.0
  0
LINE
  8
WING
  6
CONTINUOUS
 62
     1
  5
961
 10
-87.324679
 20
-72.041822
 30
0.0
 11
-86.424335
 21
-71.952792
 31
0.0
  0
LINE
  8
WING
  6
CONTINUOUS
 62
     1
  5
962
 10
-86.424335
 20
-71.952792
 30
0.0
 11
-85.523761
 21
-71.866191
 31
0.0
  0
LINE
  8
WING
  6
CONTINUOUS
 62
     1
  5
963
 10
-85.523761
 20
-71.866191
 30
0.0
 11
-84.622989
 21
-71.7817
 31
0.0
  0
LINE
  8
WING
  6
CONTINUOUS
 62
     1
  5
964
 10
-84.622989
 20
-71.7817
 30
0.0
 11
-83.722048
 21
-71.698996
 31
0.0
  0
LINE
  8
WING
  6
CONTINUOUS
 62
     1
  5
965
 10
-83.722048
 20
-71.698996
 30
0.0
 11
-82.82097
 21
-71.617759
 31
0.0
  0
LINE
  8
WING
  6
CONTINUOUS
 62
     1
  5
966
 10
-82.82097
 20
-71.617759
 30
0.0
 11
-81.919783
 21
-71.537667
 31
0.0
  0
LINE
  8
WING
  6
CONTINUOUS
 62
     1
  5
967
 10
-81.919783
 20
-71.537667
 30
0.0
 11
-81.018519
 21
-71.458399
 31
0.0
  0
LINE
  8
WING
  6
CONTINUOUS
 62
     1
  5
968
 10
-81.018519
 20
-71.458399
 30
0.0
 11
-80.117207
 21
-71.379634
 31
0.0
  0
LINE
  8
WING
  6
CONTINUOUS
 62
     1
  5
969
 10
-80.117207
 20
-71.379634
 30
0.0
 11
-79.461592
 21
-71.320518
 31
0.0
  0
LINE
  8
WING
  6
CONTINUOUS
 62
     1
  5
96A
 10
-79.461592
 20
-71.320518
 30
0.0
 11
-78.806187
 21
-71.2587
 31
0.0
  0
LINE
  8
WING
  6
CONTINUOUS
 62
     1
  5
96B
 10
-78.806187
 20
-71.2587
 30
0.0
 11
-78.15086
 21
-71.195876
 31
0.0
  0
LINE
  8
WING
  6
CONTINUOUS
 62
     1
  5
96C
 10
-78.15086
 20
-71.195876
 30
0.0
 11
-77.49548
 21
-71.133741
 31
0.0
  0
LINE
  8
WING
  6
CONTINUOUS
 62
     1
  5
96D
 10
-77.49548
 20
-71.133741
 30
0.0
 11
-76.839915
 21
-71.07399
 31
0.0
  0
LINE
  8
WING
  6
CONTINUOUS
 62
     1
  5
96E
 10
-76.839915
 20
-71.07399
 30
0.0
 11
-76.184033
 21
-71.018319
 31
0.0
  0
LINE
  8
WING
  6
CONTINUOUS
 62
     1
  5
96F
 10
-76.184033
 20
-71.018319
 30
0.0
 11
-75.527702
 21
-70.968423
 31
0.0
  0
LINE
  8
WING
  6
CONTINUOUS
 62
     1
  5
970
 10
-75.527702
 20
-70.968423
 30
0.0
 11
-74.870792
 21
-70.925998
 31
0.0
  0
LINE
  8
WING
  6
CONTINUOUS
 62
     1
  5
971
 10
-74.870792
 20
-70.925998
 30
0.0
 11
-74.213171
 21
-70.892739
 31
0.0
  0
LINE
  8
WING
  6
CONTINUOUS
 62
     1
  5
972
 10
-74.213171
 20
-70.892739
 30
0.0
 11
-73.554707
 21
-70.87034
 31
0.0
  0
LINE
  8
WING
  6
CONTINUOUS
 62
     1
  5
973
 10
-73.554707
 20
-70.87034
 30
0.0
 11
-72.165001
 21
-70.842319
 31
0.0
  0
LINE
  8
WING
  6
CONTINUOUS
 62
     1
  5
974
 10
-72.165001
 20
-70.842319
 30
0.0
 11
-70.775295
 21
-70.826061
 31
0.0
  0
LINE
  8
WING
  6
CONTINUOUS
 62
     1
  5
975
 10
-70.775295
 20
-70.826061
 30
0.0
 11
-69.385589
 21
-70.819488
 31
0.0
  0
LINE
  8
WING
  6
CONTINUOUS
 62
     1
  5
976
 10
-69.385589
 20
-70.819488
 30
0.0
 11
-67.995883
 21
-70.820526
 31
0.0
  0
LINE
  8
WING
  6
CONTINUOUS
 62
     1
  5
977
 10
-67.995883
 20
-70.820526
 30
0.0
 11
-66.606177
 21
-70.827098
 31
0.0
  0
LINE
  8
WING
  6
CONTINUOUS
 62
     1
  5
978
 10
-66.606177
 20
-70.827098
 30
0.0
 11
-65.216471
 21
-70.83713
 31
0.0
  0
LINE
  8
WING
  6
CONTINUOUS
 62
     1
  5
979
 10
-65.216471
 20
-70.83713
 30
0.0
 11
-63.826766
 21
-70.848546
 31
0.0
  0
LINE
  8
WING
  6
CONTINUOUS
 62
     1
  5
97A
 10
-63.826766
 20
-70.848546
 30
0.0
 11
-62.43706
 21
-70.85927
 31
0.0
  0
LINE
  8
WING
  6
CONTINUOUS
 62
     1
  5
97B
 10
-62.43706
 20
-70.85927
 30
0.0
 11
-61.047354
 21
-70.867227
 31
0.0
  0
LINE
  8
WING
  6
CONTINUOUS
 62
     1
  5
97C
 10
-61.047354
 20
-70.867227
 30
0.0
 11
-59.657648
 21
-70.87034
 31
0.0
  0
LINE
  8
WING
  6
CONTINUOUS
 62
     1
  5
97D
 10
-59.657648
 20
-70.87034
 30
0.0
 11
-57.328604
 21
-70.87034
 31
0.0
  0
LINE
  8
WING
  6
CONTINUOUS
 62
     1
  5
97E
 10
-57.328604
 20
-70.87034
 30
0.0
 11
-54.99956
 21
-70.87034
 31
0.0
  0
LINE
  8
WING
  6
CONTINUOUS
 62
     1
  5
97F
 10
-54.99956
 20
-70.87034
 30
0.0
 11
-52.670516
 21
-70.87034
 31
0.0
  0
LINE
  8
WING
  6
CONTINUOUS
 62
     1
  5
980
 10
-52.670516
 20
-70.87034
 30
0.0
 11
-50.341471
 21
-70.87034
 31
0.0
  0
LINE
  8
WING
  6
CONTINUOUS
 62
     1
  5
981
 10
-50.341471
 20
-70.87034
 30
0.0
 11
-48.012427
 21
-70.87034
 31
0.0
  0
LINE
  8
WING
  6
CONTINUOUS
 62
     1
  5
982
 10
-48.012427
 20
-70.87034
 30
0.0
 11
-45.683383
 21
-70.87034
 31
0.0
  0
LINE
  8
WING
  6
CONTINUOUS
 62
     1
  5
983
 10
-45.683383
 20
-70.87034
 30
0.0
 11
-43.354339
 21
-70.87034
 31
0.0
  0
LINE
  8
WING
  6
CONTINUOUS
 62
     1
  5
984
 10
-43.354339
 20
-70.87034
 30
0.0
 11
-41.025295
 21
-70.87034
 31
0.0
  0
LINE
  8
WING
  6
CONTINUOUS
 62
     1
  5
985
 10
-41.025295
 20
-70.87034
 30
0.0
 11
-38.696251
 21
-70.87034
 31
0.0
  0
LINE
  8
WING
  6
CONTINUOUS
 62
     1
  5
986
 10
-38.696251
 20
-70.87034
 30
0.0
 11
-36.367207
 21
-70.87034
 31
0.0
  0
LINE
  8
WING
  6
CONTINUOUS
 62
     1
  5
987
 10
-36.367207
 20
-70.87034
 30
0.0
 11
-35.679087
 21
-70.87034
 31
0.0
  0
LINE
  8
WING
  6
CONTINUOUS
 62
     1
  5
988
 10
-35.679087
 20
-70.87034
 30
0.0
 11
-34.990968
 21
-70.87034
 31
0.0
  0
LINE
  8
WING
  6
CONTINUOUS
 62
     1
  5
989
 10
-34.990968
 20
-70.87034
 30
0.0
 11
-34.302848
 21
-70.87034
 31
0.0
  0
LINE
  8
WING
  6
CONTINUOUS
 62
     1
  5
98A
 10
-34.302848
 20
-70.87034
 30
0.0
 11
-33.614729
 21
-70.87034
 31
0.0
  0
LINE
  8
WING
  6
CONTINUOUS
 62
     1
  5
98B
 10
-33.614729
 20
-70.87034
 30
0.0
 11
-32.193716
 21
-70.87034
 31
0.0
  0
LINE
  8
WING
  6
CONTINUOUS
 62
     1
  5
98C
 10
-32.926609
 20
-70.87034
 30
0.0
 11
-32.23849
 21
-70.87034
 31
0.0
  0
LINE
  8
WING
  6
CONTINUOUS
 62
     1
  5
98D
 10
60.469765
 20
-78.67951
 30
0.0
 11
60.211153
 21
-78.594223
 31
0.0
  0
LINE
  8
WING
  6
CONTINUOUS
 62
     1
  5
98E
 10
60.211153
 20
-78.594223
 30
0.0
 11
59.952747
 21
-78.508306
 31
0.0
  0
LINE
  8
WING
  6
CONTINUOUS
 62
     1
  5
98F
 10
59.952747
 20
-78.508306
 30
0.0
 11
59.69446
 21
-78.422029
 31
0.0
  0
LINE
  8
WING
  6
CONTINUOUS
 62
     1
  5
990
 10
59.69446
 20
-78.422029
 30
0.0
 11
59.436202
 21
-78.335662
 31
0.0
  0
LINE
  8
WING
  6
CONTINUOUS
 62
     1
  5
991
 10
59.436202
 20
-78.335662
 30
0.0
 11
59.177885
 21
-78.249475
 31
0.0
  0
LINE
  8
WING
  6
CONTINUOUS
 62
     1
  5
992
 10
59.177885
 20
-78.249475
 30
0.0
 11
58.91942
 21
-78.163738
 31
0.0
  0
LINE
  8
WING
  6
CONTINUOUS
 62
     1
  5
993
 10
58.91942
 20
-78.163738
 30
0.0
 11
58.66072
 21
-78.078721
 31
0.0
  0
LINE
  8
WING
  6
CONTINUOUS
 62
     1
  5
994
 10
58.66072
 20
-78.078721
 30
0.0
 11
58.401694
 21
-77.994694
 31
0.0
  0
LINE
  8
WING
  6
CONTINUOUS
 62
     1
  5
995
 10
58.401694
 20
-77.994694
 30
0.0
 11
58.142256
 21
-77.911926
 31
0.0
  0
LINE
  8
WING
  6
CONTINUOUS
 62
     1
  5
996
 10
58.142256
 20
-77.911926
 30
0.0
 11
57.882316
 21
-77.830687
 31
0.0
  0
LINE
  8
WING
  6
CONTINUOUS
 62
     1
  5
997
 10
57.882316
 20
-77.830687
 30
0.0
 11
57.411686
 21
-77.685327
 31
0.0
  0
LINE
  8
WING
  6
CONTINUOUS
 62
     1
  5
998
 10
57.411686
 20
-77.685327
 30
0.0
 11
56.940988
 21
-77.540195
 31
0.0
  0
LINE
  8
WING
  6
CONTINUOUS
 62
     1
  5
999
 10
56.940988
 20
-77.540195
 30
0.0
 11
56.470135
 21
-77.395584
 31
0.0
  0
LINE
  8
WING
  6
CONTINUOUS
 62
     1
  5
99A
 10
56.470135
 20
-77.395584
 30
0.0
 11
55.99904
 21
-77.251783
 31
0.0
  0
LINE
  8
WING
  6
CONTINUOUS
 62
     1
  5
99B
 10
55.99904
 20
-77.251783
 30
0.0
 11
55.527616
 21
-77.109082
 31
0.0
  0
LINE
  8
WING
  6
CONTINUOUS
 62
     1
  5
99C
 10
55.527616
 20
-77.109082
 30
0.0
 11
55.055778
 21
-76.967774
 31
0.0
  0
LINE
  8
WING
  6
CONTINUOUS
 62
     1
  5
99D
 10
55.055778
 20
-76.967774
 30
0.0
 11
54.583437
 21
-76.828148
 31
0.0
  0
LINE
  8
WING
  6
CONTINUOUS
 62
     1
  5
99E
 10
54.583437
 20
-76.828148
 30
0.0
 11
54.110508
 21
-76.690494
 31
0.0
  0
LINE
  8
WING
  6
CONTINUOUS
 62
     1
  5
99F
 10
54.110508
 20
-76.690494
 30
0.0
 11
53.636903
 21
-76.555104
 31
0.0
  0
LINE
  8
WING
  6
CONTINUOUS
 62
     1
  5
9A0
 10
53.636903
 20
-76.555104
 30
0.0
 11
53.162536
 21
-76.422268
 31
0.0
  0
LINE
  8
WING
  6
CONTINUOUS
 62
     1
  5
9A1
 10
53.162536
 20
-76.422268
 30
0.0
 11
52.594671
 21
-76.265105
 31
0.0
  0
LINE
  8
WING
  6
CONTINUOUS
 62
     1
  5
9A2
 10
52.594671
 20
-76.265105
 30
0.0
 11
52.026669
 21
-76.108474
 31
0.0
  0
LINE
  8
WING
  6
CONTINUOUS
 62
     1
  5
9A3
 10
52.026669
 20
-76.108474
 30
0.0
 11
51.458377
 21
-75.952958
 31
0.0
  0
LINE
  8
WING
  6
CONTINUOUS
 62
     1
  5
9A4
 10
51.458377
 20
-75.952958
 30
0.0
 11
50.889645
 21
-75.799141
 31
0.0
  0
LINE
  8
WING
  6
CONTINUOUS
 62
     1
  5
9A5
 10
50.889645
 20
-75.799141
 30
0.0
 11
50.320322
 21
-75.64761
 31
0.0
  0
LINE
  8
WING
  6
CONTINUOUS
 62
     1
  5
9A6
 10
50.320322
 20
-75.64761
 30
0.0
 11
49.750254
 21
-75.498948
 31
0.0
  0
LINE
  8
WING
  6
CONTINUOUS
 62
     1
  5
9A7
 10
49.750254
 20
-75.498948
 30
0.0
 11
49.179292
 21
-75.35374
 31
0.0
  0
LINE
  8
WING
  6
CONTINUOUS
 62
     1
  5
9A8
 10
49.179292
 20
-75.35374
 30
0.0
 11
48.607284
 21
-75.212572
 31
0.0
  0
LINE
  8
WING
  6
CONTINUOUS
 62
     1
  5
9A9
 10
48.607284
 20
-75.212572
 30
0.0
 11
48.034077
 21
-75.076026
 31
0.0
  0
LINE
  8
WING
  6
CONTINUOUS
 62
     1
  5
9AA
 10
48.034077
 20
-75.076026
 30
0.0
 11
47.459522
 21
-74.944689
 31
0.0
  0
LINE
  8
WING
  6
CONTINUOUS
 62
     1
  5
9AB
 10
47.459522
 20
-74.944689
 30
0.0
 11
46.915664
 21
-74.826629
 31
0.0
  0
LINE
  8
WING
  6
CONTINUOUS
 62
     1
  5
9AC
 10
46.915664
 20
-74.826629
 30
0.0
 11
46.370684
 21
-74.714599
 31
0.0
  0
LINE
  8
WING
  6
CONTINUOUS
 62
     1
  5
9AD
 10
46.370684
 20
-74.714599
 30
0.0
 11
45.82475
 21
-74.607688
 31
0.0
  0
LINE
  8
WING
  6
CONTINUOUS
 62
     1
  5
9AE
 10
45.82475
 20
-74.607688
 30
0.0
 11
45.278032
 21
-74.504984
 31
0.0
  0
LINE
  8
WING
  6
CONTINUOUS
 62
     1
  5
9AF
 10
45.278032
 20
-74.504984
 30
0.0
 11
44.7307
 21
-74.405577
 31
0.0
  0
LINE
  8
WING
  6
CONTINUOUS
 62
     1
  5
9B0
 10
44.7307
 20
-74.405577
 30
0.0
 11
44.182924
 21
-74.308556
 31
0.0
  0
LINE
  8
WING
  6
CONTINUOUS
 62
     1
  5
9B1
 10
44.182924
 20
-74.308556
 30
0.0
 11
43.634874
 21
-74.213009
 31
0.0
  0
LINE
  8
WING
  6
CONTINUOUS
 62
     1
  5
9B2
 10
43.634874
 20
-74.213009
 30
0.0
 11
43.086718
 21
-74.118025
 31
0.0
  0
LINE
  8
WING
  6
CONTINUOUS
 62
     1
  5
9B3
 10
43.086718
 20
-74.118025
 30
0.0
 11
42.538628
 21
-74.022693
 31
0.0
  0
LINE
  8
WING
  6
CONTINUOUS
 62
     1
  5
9B4
 10
42.538628
 20
-74.022693
 30
0.0
 11
41.990772
 21
-73.926102
 31
0.0
  0
LINE
  8
WING
  6
CONTINUOUS
 62
     1
  5
9B5
 10
41.990772
 20
-73.926102
 30
0.0
 11
41.489721
 21
-73.836564
 31
0.0
  0
LINE
  8
WING
  6
CONTINUOUS
 62
     1
  5
9B6
 10
41.489721
 20
-73.836564
 30
0.0
 11
40.988719
 21
-73.746737
 31
0.0
  0
LINE
  8
WING
  6
CONTINUOUS
 62
     1
  5
9B7
 10
40.988719
 20
-73.746737
 30
0.0
 11
40.487682
 21
-73.65712
 31
0.0
  0
LINE
  8
WING
  6
CONTINUOUS
 62
     1
  5
9B8
 10
40.487682
 20
-73.65712
 30
0.0
 11
39.986525
 21
-73.568206
 31
0.0
  0
LINE
  8
WING
  6
CONTINUOUS
 62
     1
  5
9B9
 10
39.986525
 20
-73.568206
 30
0.0
 11
39.485166
 21
-73.480493
 31
0.0
  0
LINE
  8
WING
  6
CONTINUOUS
 62
     1
  5
9BA
 10
39.485166
 20
-73.480493
 30
0.0
 11
38.98352
 21
-73.394475
 31
0.0
  0
LINE
  8
WING
  6
CONTINUOUS
 62
     1
  5
9BB
 10
38.98352
 20
-73.394475
 30
0.0
 11
38.481503
 21
-73.310649
 31
0.0
  0
LINE
  8
WING
  6
CONTINUOUS
 62
     1
  5
9BC
 10
38.481503
 20
-73.310649
 30
0.0
 11
37.979031
 21
-73.229511
 31
0.0
  0
LINE
  8
WING
  6
CONTINUOUS
 62
     1
  5
9BD
 10
37.979031
 20
-73.229511
 30
0.0
 11
37.476021
 21
-73.151555
 31
0.0
  0
LINE
  8
WING
  6
CONTINUOUS
 62
     1
  5
9BE
 10
37.476021
 20
-73.151555
 30
0.0
 11
36.972389
 21
-73.077279
 31
0.0
  0
LINE
  8
WING
  6
CONTINUOUS
 62
     1
  5
9BF
 10
36.972389
 20
-73.077279
 30
0.0
 11
36.291813
 21
-72.981076
 31
0.0
  0
LINE
  8
WING
  6
CONTINUOUS
 62
     1
  5
9C0
 10
36.291813
 20
-72.981076
 30
0.0
 11
35.610901
 21
-72.887566
 31
0.0
  0
LINE
  8
WING
  6
CONTINUOUS
 62
     1
  5
9C1
 10
35.610901
 20
-72.887566
 30
0.0
 11
34.929663
 21
-72.796684
 31
0.0
  0
LINE
  8
WING
  6
CONTINUOUS
 62
     1
  5
9C2
 10
34.929663
 20
-72.796684
 30
0.0
 11
34.248106
 21
-72.708362
 31
0.0
  0
LINE
  8
WING
  6
CONTINUOUS
 62
     1
  5
9C3
 10
34.248106
 20
-72.708362
 30
0.0
 11
33.566238
 21
-72.622533
 31
0.0
  0
LINE
  8
WING
  6
CONTINUOUS
 62
     1
  5
9C4
 10
33.566238
 20
-72.622533
 30
0.0
 11
32.884069
 21
-72.539132
 31
0.0
  0
LINE
  8
WING
  6
CONTINUOUS
 62
     1
  5
9C5
 10
32.884069
 20
-72.539132
 30
0.0
 11
32.201605
 21
-72.45809
 31
0.0
  0
LINE
  8
WING
  6
CONTINUOUS
 62
     1
  5
9C6
 10
32.201605
 20
-72.45809
 30
0.0
 11
31.518857
 21
-72.379341
 31
0.0
  0
LINE
  8
WING
  6
CONTINUOUS
 62
     1
  5
9C7
 10
31.518857
 20
-72.379341
 30
0.0
 11
30.835831
 21
-72.302819
 31
0.0
  0
LINE
  8
WING
  6
CONTINUOUS
 62
     1
  5
9C8
 10
30.835831
 20
-72.302819
 30
0.0
 11
30.152536
 21
-72.228456
 31
0.0
  0
LINE
  8
WING
  6
CONTINUOUS
 62
     1
  5
9C9
 10
30.152536
 20
-72.228456
 30
0.0
 11
29.252741
 21
-72.133603
 31
0.0
  0
LINE
  8
WING
  6
CONTINUOUS
 62
     1
  5
9CA
 10
29.252741
 20
-72.133603
 30
0.0
 11
28.352655
 21
-72.041822
 31
0.0
  0
LINE
  8
WING
  6
CONTINUOUS
 62
     1
  5
9CB
 10
28.352655
 20
-72.041822
 30
0.0
 11
27.452311
 21
-71.952792
 31
0.0
  0
LINE
  8
WING
  6
CONTINUOUS
 62
     1
  5
9CC
 10
27.452311
 20
-71.952792
 30
0.0
 11
26.551738
 21
-71.866191
 31
0.0
  0
LINE
  8
WING
  6
CONTINUOUS
 62
     1
  5
9CD
 10
26.551738
 20
-71.866191
 30
0.0
 11
25.650965
 21
-71.7817
 31
0.0
  0
LINE
  8
WING
  6
CONTINUOUS
 62
     1
  5
9CE
 10
25.650965
 20
-71.7817
 30
0.0
 11
24.750025
 21
-71.698996
 31
0.0
  0
LINE
  8
WING
  6
CONTINUOUS
 62
     1
  5
9CF
 10
24.750025
 20
-71.698996
 30
0.0
 11
23.848946
 21
-71.617759
 31
0.0
  0
LINE
  8
WING
  6
CONTINUOUS
 62
     1
  5
9D0
 10
23.848946
 20
-71.617759
 30
0.0
 11
22.947759
 21
-71.537667
 31
0.0
  0
LINE
  8
WING
  6
CONTINUOUS
 62
     1
  5
9D1
 10
22.947759
 20
-71.537667
 30
0.0
 11
22.046495
 21
-71.458399
 31
0.0
  0
LINE
  8
WING
  6
CONTINUOUS
 62
     1
  5
9D2
 10
22.046495
 20
-71.458399
 30
0.0
 11
21.145183
 21
-71.379634
 31
0.0
  0
LINE
  8
WING
  6
CONTINUOUS
 62
     1
  5
9D3
 10
21.145183
 20
-71.379634
 30
0.0
 11
20.489569
 21
-71.320518
 31
0.0
  0
LINE
  8
WING
  6
CONTINUOUS
 62
     1
  5
9D4
 10
20.489569
 20
-71.320518
 30
0.0
 11
19.834164
 21
-71.2587
 31
0.0
  0
LINE
  8
WING
  6
CONTINUOUS
 62
     1
  5
9D5
 10
19.834164
 20
-71.2587
 30
0.0
 11
19.178837
 21
-71.195876
 31
0.0
  0
LINE
  8
WING
  6
CONTINUOUS
 62
     1
  5
9D6
 10
19.178837
 20
-71.195876
 30
0.0
 11
18.523456
 21
-71.133741
 31
0.0
  0
LINE
  8
WING
  6
CONTINUOUS
 62
     1
  5
9D7
 10
18.523456
 20
-71.133741
 30
0.0
 11
17.867891
 21
-71.07399
 31
0.0
  0
LINE
  8
WING
  6
CONTINUOUS
 62
     1
  5
9D8
 10
17.867891
 20
-71.07399
 30
0.0
 11
17.212009
 21
-71.018319
 31
0.0
  0
LINE
  8
WING
  6
CONTINUOUS
 62
     1
  5
9D9
 10
17.212009
 20
-71.018319
 30
0.0
 11
16.555679
 21
-70.968423
 31
0.0
  0
LINE
  8
WING
  6
CONTINUOUS
 62
     1
  5
9DA
 10
16.555679
 20
-70.968423
 30
0.0
 11
15.898769
 21
-70.925998
 31
0.0
  0
LINE
  8
WING
  6
CONTINUOUS
 62
     1
  5
9DB
 10
15.898769
 20
-70.925998
 30
0.0
 11
15.241147
 21
-70.892739
 31
0.0
  0
LINE
  8
WING
  6
CONTINUOUS
 62
     1
  5
9DC
 10
15.241147
 20
-70.892739
 30
0.0
 11
14.582683
 21
-70.87034
 31
0.0
  0
LINE
  8
WING
  6
CONTINUOUS
 62
     1
  5
9DD
 10
14.582683
 20
-70.87034
 30
0.0
 11
13.192977
 21
-70.842319
 31
0.0
  0
LINE
  8
WING
  6
CONTINUOUS
 62
     1
  5
9DE
 10
13.192977
 20
-70.842319
 30
0.0
 11
11.803272
 21
-70.826061
 31
0.0
  0
LINE
  8
WING
  6
CONTINUOUS
 62
     1
  5
9DF
 10
11.803272
 20
-70.826061
 30
0.0
 11
10.413566
 21
-70.819488
 31
0.0
  0
LINE
  8
WING
  6
CONTINUOUS
 62
     1
  5
9E0
 10
10.413566
 20
-70.819488
 30
0.0
 11
9.02386
 21
-70.820526
 31
0.0
  0
LINE
  8
WING
  6
CONTINUOUS
 62
     1
  5
9E1
 10
9.02386
 20
-70.820526
 30
0.0
 11
7.634154
 21
-70.827098
 31
0.0
  0
LINE
  8
WING
  6
CONTINUOUS
 62
     1
  5
9E2
 10
7.634154
 20
-70.827098
 30
0.0
 11
6.244448
 21
-70.83713
 31
0.0
  0
LINE
  8
WING
  6
CONTINUOUS
 62
     1
  5
9E3
 10
6.244448
 20
-70.83713
 30
0.0
 11
4.854742
 21
-70.848546
 31
0.0
  0
LINE
  8
WING
  6
CONTINUOUS
 62
     1
  5
9E4
 10
4.854742
 20
-70.848546
 30
0.0
 11
3.465036
 21
-70.85927
 31
0.0
  0
LINE
  8
WING
  6
CONTINUOUS
 62
     1
  5
9E5
 10
3.465036
 20
-70.85927
 30
0.0
 11
2.07533
 21
-70.867227
 31
0.0
  0
LINE
  8
WING
  6
CONTINUOUS
 62
     1
  5
9E6
 10
2.07533
 20
-70.867227
 30
0.0
 11
0.685624
 21
-70.87034
 31
0.0
  0
LINE
  8
WING
  6
CONTINUOUS
 62
     1
  5
9E7
 10
0.685624
 20
-70.87034
 30
0.0
 11
-1.64342
 21
-70.87034
 31
0.0
  0
LINE
  8
WING
  6
CONTINUOUS
 62
     1
  5
9E8
 10
-1.64342
 20
-70.87034
 30
0.0
 11
-3.972464
 21
-70.87034
 31
0.0
  0
LINE
  8
WING
  6
CONTINUOUS
 62
     1
  5
9E9
 10
-3.972464
 20
-70.87034
 30
0.0
 11
-6.301508
 21
-70.87034
 31
0.0
  0
LINE
  8
WING
  6
CONTINUOUS
 62
     1
  5
9EA
 10
-6.301508
 20
-70.87034
 30
0.0
 11
-8.630552
 21
-70.87034
 31
0.0
  0
LINE
  8
WING
  6
CONTINUOUS
 62
     1
  5
9EB
 10
-8.630552
 20
-70.87034
 30
0.0
 11
-10.959596
 21
-70.87034
 31
0.0
  0
LINE
  8
WING
  6
CONTINUOUS
 62
     1
  5
9EC
 10
-10.959596
 20
-70.87034
 30
0.0
 11
-13.28864
 21
-70.87034
 31
0.0
  0
LINE
  8
WING
  6
CONTINUOUS
 62
     1
  5
9ED
 10
-13.28864
 20
-70.87034
 30
0.0
 11
-15.617684
 21
-70.87034
 31
0.0
  0
LINE
  8
WING
  6
CONTINUOUS
 62
     1
  5
9EE
 10
-15.617684
 20
-70.87034
 30
0.0
 11
-17.946728
 21
-70.87034
 31
0.0
  0
LINE
  8
WING
  6
CONTINUOUS
 62
     1
  5
9EF
 10
-17.946728
 20
-70.87034
 30
0.0
 11
-20.275773
 21
-70.87034
 31
0.0
  0
LINE
  8
WING
  6
CONTINUOUS
 62
     1
  5
9F0
 10
-20.275773
 20
-70.87034
 30
0.0
 11
-22.604817
 21
-70.87034
 31
0.0
  0
LINE
  8
WING
  6
CONTINUOUS
 62
     1
  5
9F1
 10
-22.604817
 20
-70.87034
 30
0.0
 11
-23.292936
 21
-70.87034
 31
0.0
  0
LINE
  8
WING
  6
CONTINUOUS
 62
     1
  5
9F2
 10
-23.292936
 20
-70.87034
 30
0.0
 11
-23.981056
 21
-70.87034
 31
0.0
  0
LINE
  8
WING
  6
CONTINUOUS
 62
     1
  5
9F3
 10
-23.981056
 20
-70.87034
 30
0.0
 11
-24.669175
 21
-70.87034
 31
0.0
  0
LINE
  8
WING
  6
CONTINUOUS
 62
     1
  5
9F4
 10
-24.669175
 20
-70.87034
 30
0.0
 11
-25.357295
 21
-70.87034
 31
0.0
  0
LINE
  8
WING
  6
CONTINUOUS
 62
     1
  5
9F5
 10
-25.357295
 20
-70.87034
 30
0.0
 11
-26.045414
 21
-70.87034
 31
0.0
  0
LINE
  8
WING
  6
CONTINUOUS
 62
     1
  5
9F6
 10
-26.045414
 20
-70.87034
 30
0.0
 11
-27.693716
 21
-70.87034
 31
0.0
  0
LINE
  8
WING
  6
CONTINUOUS
 62
     1
  5
9F7
 10
-26.733534
 20
-70.87034
 30
0.0
 11
-27.421653
 21
-70.87034
 31
0.0
  0
LINE
  8
WING
  6
CONTINUOUS
 62
     1
  5
9F8
 10
-119.441788
 20
-78.67951
 30
0.0
 11
-119.441788
 21
-75.67951
 31
0.0
  0
LINE
  8
PLAN
  6
CONTINUOUS
 62
    11
  5
9F9
 10
73.764065
 20
-15.276469
 30
0.0
 11
73.82912
 21
-15.03536
 31
0.0
  0
LINE
  8
PLAN
  6
CONTINUOUS
 62
    11
  5
9FA
 10
73.82912
 20
-15.03536
 30
0.0
 11
73.890672
 21
-14.79327
 31
0.0
  0
LINE
  8
PLAN
  6
CONTINUOUS
 62
    11
  5
9FB
 10
73.890672
 20
-14.79327
 30
0.0
 11
73.950222
 21
-14.55062
 31
0.0
  0
LINE
  8
PLAN
  6
CONTINUOUS
 62
    11
  5
9FC
 10
73.950222
 20
-14.55062
 30
0.0
 11
74.009272
 21
-14.30783
 31
0.0
  0
LINE
  8
PLAN
  6
CONTINUOUS
 62
    11
  5
9FD
 10
74.009272
 20
-14.30783
 30
0.0
 11
74.069323
 21
-14.06532
 31
0.0
  0
LINE
  8
PLAN
  6
CONTINUOUS
 62
    11
  5
9FE
 10
74.069323
 20
-14.06532
 30
0.0
 11
74.131876
 21
-13.82351
 31
0.0
  0
LINE
  8
PLAN
  6
CONTINUOUS
 62
    11
  5
9FF
 10
74.131876
 20
-13.82351
 30
0.0
 11
74.198431
 21
-13.58282
 31
0.0
  0
LINE
  8
PLAN
  6
CONTINUOUS
 62
    11
  5
A00
 10
74.198431
 20
-13.58282
 30
0.0
 11
74.270492
 21
-13.343672
 31
0.0
  0
LINE
  8
PLAN
  6
CONTINUOUS
 62
    11
  5
A01
 10
74.270492
 20
-13.343672
 30
0.0
 11
74.349557
 21
-13.106484
 31
0.0
  0
LINE
  8
PLAN
  6
CONTINUOUS
 62
    11
  5
A02
 10
74.349557
 20
-13.106484
 30
0.0
 11
74.43713
 21
-12.871676
 31
0.0
  0
LINE
  8
PLAN
  6
CONTINUOUS
 62
    11
  5
A03
 10
74.43713
 20
-12.871676
 30
0.0
 11
74.624548
 21
-12.412868
 31
0.0
  0
LINE
  8
PLAN
  6
CONTINUOUS
 62
    11
  5
A04
 10
74.624548
 20
-12.412868
 30
0.0
 11
74.8209
 21
-11.958144
 31
0.0
  0
LINE
  8
PLAN
  6
CONTINUOUS
 62
    11
  5
A05
 10
74.8209
 20
-11.958144
 30
0.0
 11
75.024375
 21
-11.506675
 31
0.0
  0
LINE
  8
PLAN
  6
CONTINUOUS
 62
    11
  5
A06
 10
75.024375
 20
-11.506675
 30
0.0
 11
75.23316
 21
-11.057635
 31
0.0
  0
LINE
  8
PLAN
  6
CONTINUOUS
 62
    11
  5
A07
 10
75.23316
 20
-11.057635
 30
0.0
 11
75.445444
 21
-10.610194
 31
0.0
  0
LINE
  8
PLAN
  6
CONTINUOUS
 62
    11
  5
A08
 10
75.445444
 20
-10.610194
 30
0.0
 11
75.659416
 21
-10.163524
 31
0.0
  0
LINE
  8
PLAN
  6
CONTINUOUS
 62
    11
  5
A09
 10
75.659416
 20
-10.163524
 30
0.0
 11
75.873264
 21
-9.716798
 31
0.0
  0
LINE
  8
PLAN
  6
CONTINUOUS
 62
    11
  5
A0A
 10
75.873264
 20
-9.716798
 30
0.0
 11
76.085178
 21
-9.269187
 31
0.0
  0
LINE
  8
PLAN
  6
CONTINUOUS
 62
    11
  5
A0B
 10
76.085178
 20
-9.269187
 30
0.0
 11
76.293344
 21
-8.819864
 31
0.0
  0
LINE
  8
PLAN
  6
CONTINUOUS
 62
    11
  5
A0C
 10
76.293344
 20
-8.819864
 30
0.0
 11
76.495953
 21
-8.368
 31
0.0
  0
LINE
  8
PLAN
  6
CONTINUOUS
 62
    11
  5
A0D
 10
76.495953
 20
-8.368
 30
0.0
 11
76.670642
 21
-7.97221
 31
0.0
  0
LINE
  8
PLAN
  6
CONTINUOUS
 62
    11
  5
A0E
 10
76.670642
 20
-7.97221
 30
0.0
 11
76.846058
 21
-7.576725
 31
0.0
  0
LINE
  8
PLAN
  6
CONTINUOUS
 62
    11
  5
A0F
 10
76.846058
 20
-7.576725
 30
0.0
 11
77.021311
 21
-7.181172
 31
0.0
  0
LINE
  8
PLAN
  6
CONTINUOUS
 62
    11
  5
A10
 10
77.021311
 20
-7.181172
 30
0.0
 11
77.195511
 21
-6.785177
 31
0.0
  0
LINE
  8
PLAN
  6
CONTINUOUS
 62
    11
  5
A11
 10
77.195511
 20
-6.785177
 30
0.0
 11
77.367767
 21
-6.388367
 31
0.0
  0
LINE
  8
PLAN
  6
CONTINUOUS
 62
    11
  5
A12
 10
77.367767
 20
-6.388367
 30
0.0
 11
77.53719
 21
-5.990369
 31
0.0
  0
LINE
  8
PLAN
  6
CONTINUOUS
 62
    11
  5
A13
 10
77.53719
 20
-5.990369
 30
0.0
 11
77.702889
 21
-5.590809
 31
0.0
  0
LINE
  8
PLAN
  6
CONTINUOUS
 62
    11
  5
A14
 10
77.702889
 20
-5.590809
 30
0.0
 11
77.863975
 21
-5.189315
 31
0.0
  0
LINE
  8
PLAN
  6
CONTINUOUS
 62
    11
  5
A15
 10
77.863975
 20
-5.189315
 30
0.0
 11
78.019558
 21
-4.785513
 31
0.0
  0
LINE
  8
PLAN
  6
CONTINUOUS
 62
    11
  5
A16
 10
78.019558
 20
-4.785513
 30
0.0
 11
78.168747
 21
-4.379029
 31
0.0
  0
LINE
  8
PLAN
  6
CONTINUOUS
 62
    11
  5
A17
 10
78.168747
 20
-4.379029
 30
0.0
 11
78.34518
 21
-3.883967
 31
0.0
  0
LINE
  8
PLAN
  6
CONTINUOUS
 62
    11
  5
A18
 10
78.34518
 20
-3.883967
 30
0.0
 11
78.520093
 21
-3.388436
 31
0.0
  0
LINE
  8
PLAN
  6
CONTINUOUS
 62
    11
  5
A19
 10
78.520093
 20
-3.388436
 30
0.0
 11
78.69222
 21
-2.892049
 31
0.0
  0
LINE
  8
PLAN
  6
CONTINUOUS
 62
    11
  5
A1A
 10
78.69222
 20
-2.892049
 30
0.0
 11
78.860298
 21
-2.394416
 31
0.0
  0
LINE
  8
PLAN
  6
CONTINUOUS
 62
    11
  5
A1B
 10
78.860298
 20
-2.394416
 30
0.0
 11
79.02306
 21
-1.895147
 31
0.0
  0
LINE
  8
PLAN
  6
CONTINUOUS
 62
    11
  5
A1C
 10
79.02306
 20
-1.895147
 30
0.0
 11
79.179242
 21
-1.393854
 31
0.0
  0
LINE
  8
PLAN
  6
CONTINUOUS
 62
    11
  5
A1D
 10
79.179242
 20
-1.393854
 30
0.0
 11
79.327579
 21
-0.890146
 31
0.0
  0
LINE
  8
PLAN
  6
CONTINUOUS
 62
    11
  5
A1E
 10
79.327579
 20
-0.890146
 30
0.0
 11
79.466805
 21
-0.383635
 31
0.0
  0
LINE
  8
PLAN
  6
CONTINUOUS
 62
    11
  5
A1F
 10
79.466805
 20
-0.383635
 30
0.0
 11
79.595655
 21
0.126068
 31
0.0
  0
LINE
  8
PLAN
  6
CONTINUOUS
 62
    11
  5
A20
 10
79.595655
 20
0.126068
 30
0.0
 11
79.712865
 21
0.639353
 31
0.0
  0
LINE
  8
PLAN
  6
CONTINUOUS
 62
    11
  5
A21
 10
79.712865
 20
0.639353
 30
0.0
 11
79.777827
 21
0.970894
 31
0.0
  0
LINE
  8
PLAN
  6
CONTINUOUS
 62
    11
  5
A22
 10
79.777827
 20
0.970894
 30
0.0
 11
79.830898
 21
1.30335
 31
0.0
  0
LINE
  8
PLAN
  6
CONTINUOUS
 62
    11
  5
A23
 10
79.830898
 20
1.30335
 30
0.0
 11
79.87327
 21
1.63663
 31
0.0
  0
LINE
  8
PLAN
  6
CONTINUOUS
 62
    11
  5
A24
 10
79.87327
 20
1.63663
 30
0.0
 11
79.906131
 21
1.97064
 31
0.0
  0
LINE
  8
PLAN
  6
CONTINUOUS
 62
    11
  5
A25
 10
79.906131
 20
1.97064
 30
0.0
 11
79.930671
 21
2.305291
 31
0.0
  0
LINE
  8
PLAN
  6
CONTINUOUS
 62
    11
  5
A26
 10
79.930671
 20
2.305291
 30
0.0
 11
79.948081
 21
2.64049
 31
0.0
  0
LINE
  8
PLAN
  6
CONTINUOUS
 62
    11
  5
A27
 10
79.948081
 20
2.64049
 30
0.0
 11
79.959551
 21
2.976146
 31
0.0
  0
LINE
  8
PLAN
  6
CONTINUOUS
 62
    11
  5
A28
 10
79.959551
 20
2.976146
 30
0.0
 11
79.96627
 21
3.312168
 31
0.0
  0
LINE
  8
PLAN
  6
CONTINUOUS
 62
    11
  5
A29
 10
79.96627
 20
3.312168
 30
0.0
 11
79.969429
 21
3.648463
 31
0.0
  0
LINE
  8
PLAN
  6
CONTINUOUS
 62
    11
  5
A2A
 10
79.969429
 20
3.648463
 30
0.0
 11
79.970218
 21
3.984941
 31
0.0
  0
LINE
  8
PLAN
  6
CONTINUOUS
 62
    11
  5
A2B
 10
79.970218
 20
3.984941
 30
0.0
 11
79.967096
 21
4.642078
 31
0.0
  0
LINE
  8
PLAN
  6
CONTINUOUS
 62
    11
  5
A2C
 10
79.967096
 20
4.642078
 30
0.0
 11
79.957974
 21
5.29898
 31
0.0
  0
LINE
  8
PLAN
  6
CONTINUOUS
 62
    11
  5
A2D
 10
79.957974
 20
5.29898
 30
0.0
 11
79.943219
 21
5.95566
 31
0.0
  0
LINE
  8
PLAN
  6
CONTINUOUS
 62
    11
  5
A2E
 10
79.943219
 20
5.95566
 30
0.0
 11
79.923194
 21
6.612134
 31
0.0
  0
LINE
  8
PLAN
  6
CONTINUOUS
 62
    11
  5
A2F
 10
79.923194
 20
6.612134
 30
0.0
 11
79.898265
 21
7.268416
 31
0.0
  0
LINE
  8
PLAN
  6
CONTINUOUS
 62
    11
  5
A30
 10
79.898265
 20
7.268416
 30
0.0
 11
79.868799
 21
7.924519
 31
0.0
  0
LINE
  8
PLAN
  6
CONTINUOUS
 62
    11
  5
A31
 10
79.868799
 20
7.924519
 30
0.0
 11
79.835161
 21
8.58046
 31
0.0
  0
LINE
  8
PLAN
  6
CONTINUOUS
 62
    11
  5
A32
 10
79.835161
 20
8.58046
 30
0.0
 11
79.797715
 21
9.23625
 31
0.0
  0
LINE
  8
PLAN
  6
CONTINUOUS
 62
    11
  5
A33
 10
79.797715
 20
9.23625
 30
0.0
 11
79.756828
 21
9.891906
 31
0.0
  0
LINE
  8
PLAN
  6
CONTINUOUS
 62
    11
  5
A34
 10
79.756828
 20
9.891906
 30
0.0
 11
79.712865
 21
10.547441
 31
0.0
  0
LINE
  8
PLAN
  6
CONTINUOUS
 62
    11
  5
A35
 10
79.712865
 20
10.547441
 30
0.0
 11
79.63713
 21
11.565256
 31
0.0
  0
LINE
  8
PLAN
  6
CONTINUOUS
 62
    11
  5
A36
 10
79.63713
 20
11.565256
 30
0.0
 11
79.552375
 21
12.582271
 31
0.0
  0
LINE
  8
PLAN
  6
CONTINUOUS
 62
    11
  5
A37
 10
79.552375
 20
12.582271
 30
0.0
 11
79.460788
 21
13.598681
 31
0.0
  0
LINE
  8
PLAN
  6
CONTINUOUS
 62
    11
  5
A38
 10
79.460788
 20
13.598681
 30
0.0
 11
79.364556
 21
14.61468
 31
0.0
  0
LINE
  8
PLAN
  6
CONTINUOUS
 62
    11
  5
A39
 10
79.364556
 20
14.61468
 30
0.0
 11
79.265867
 21
15.630461
 31
0.0
  0
LINE
  8
PLAN
  6
CONTINUOUS
 62
    11
  5
A3A
 10
79.265867
 20
15.630461
 30
0.0
 11
79.166909
 21
16.646217
 31
0.0
  0
LINE
  8
PLAN
  6
CONTINUOUS
 62
    11
  5
A3B
 10
79.166909
 20
16.646217
 30
0.0
 11
79.069869
 21
17.662144
 31
0.0
  0
LINE
  8
PLAN
  6
CONTINUOUS
 62
    11
  5
A3C
 10
79.069869
 20
17.662144
 30
0.0
 11
78.976933
 21
18.678435
 31
0.0
  0
LINE
  8
PLAN
  6
CONTINUOUS
 62
    11
  5
A3D
 10
78.976933
 20
18.678435
 30
0.0
 11
78.890291
 21
19.695283
 31
0.0
  0
LINE
  8
PLAN
  6
CONTINUOUS
 62
    11
  5
A3E
 10
78.890291
 20
19.695283
 30
0.0
 11
78.81213
 21
20.712882
 31
0.0
  0
LINE
  8
PLAN
  6
CONTINUOUS
 62
    11
  5
A3F
 10
78.81213
 20
20.712882
 30
0.0
 11
78.74774
 21
21.66439
 31
0.0
  0
LINE
  8
PLAN
  6
CONTINUOUS
 62
    11
  5
A40
 10
78.74774
 20
21.66439
 30
0.0
 11
78.690332
 21
22.616275
 31
0.0
  0
LINE
  8
PLAN
  6
CONTINUOUS
 62
    11
  5
A41
 10
78.690332
 20
22.616275
 30
0.0
 11
78.638363
 21
23.568454
 31
0.0
  0
LINE
  8
PLAN
  6
CONTINUOUS
 62
    11
  5
A42
 10
78.638363
 20
23.568454
 30
0.0
 11
78.590293
 21
24.520844
 31
0.0
  0
LINE
  8
PLAN
  6
CONTINUOUS
 62
    11
  5
A43
 10
78.590293
 20
24.520844
 30
0.0
 11
78.54458
 21
25.473361
 31
0.0
  0
LINE
  8
PLAN
  6
CONTINUOUS
 62
    11
  5
A44
 10
78.54458
 20
25.473361
 30
0.0
 11
78.499683
 21
26.425922
 31
0.0
  0
LINE
  8
PLAN
  6
CONTINUOUS
 62
    11
  5
A45
 10
78.499683
 20
26.425922
 30
0.0
 11
78.454059
 21
27.378444
 31
0.0
  0
LINE
  8
PLAN
  6
CONTINUOUS
 62
    11
  5
A46
 10
78.454059
 20
27.378444
 30
0.0
 11
78.406169
 21
28.330843
 31
0.0
  0
LINE
  8
PLAN
  6
CONTINUOUS
 62
    11
  5
A47
 10
78.406169
 20
28.330843
 30
0.0
 11
78.354471
 21
29.283037
 31
0.0
  0
LINE
  8
PLAN
  6
CONTINUOUS
 62
    11
  5
A48
 10
78.354471
 20
29.283037
 30
0.0
 11
78.297424
 21
30.234941
 31
0.0
  0
LINE
  8
PLAN
  6
CONTINUOUS
 62
    11
  5
A49
 10
78.297424
 20
30.234941
 30
0.0
 11
78.226592
 21
31.316279
 31
0.0
  0
LINE
  8
PLAN
  6
CONTINUOUS
 62
    11
  5
A4A
 10
78.226592
 20
31.316279
 30
0.0
 11
78.151665
 21
32.397324
 31
0.0
  0
LINE
  8
PLAN
  6
CONTINUOUS
 62
    11
  5
A4B
 10
78.151665
 20
32.397324
 30
0.0
 11
78.073647
 21
33.478148
 31
0.0
  0
LINE
  8
PLAN
  6
CONTINUOUS
 62
    11
  5
A4C
 10
78.073647
 20
33.478148
 30
0.0
 11
77.993544
 21
34.558824
 31
0.0
  0
LINE
  8
PLAN
  6
CONTINUOUS
 62
    11
  5
A4D
 10
77.993544
 20
34.558824
 30
0.0
 11
77.912359
 21
35.639422
 31
0.0
  0
LINE
  8
PLAN
  6
CONTINUOUS
 62
    11
  5
A4E
 10
77.912359
 20
35.639422
 30
0.0
 11
77.831136
 21
36.719501
 31
0.0
  0
LINE
  8
PLAN
  6
CONTINUOUS
 62
    11
  5
A4F
 10
77.831059
 20
36.720528
 30
0.0
 11
77.750762
 21
37.800673
 31
0.0
  0
LINE
  8
PLAN
  6
CONTINUOUS
 62
    11
  5
A50
 10
77.750762
 20
37.800673
 30
0.0
 11
77.672359
 21
38.88147
 31
0.0
  0
LINE
  8
PLAN
  6
CONTINUOUS
 62
    11
  5
A51
 10
77.672359
 20
38.88147
 30
0.0
 11
77.596892
 21
39.962477
 31
0.0
  0
LINE
  8
PLAN
  6
CONTINUOUS
 62
    11
  5
A52
 10
77.596892
 20
39.962477
 30
0.0
 11
77.525365
 21
41.043765
 31
0.0
  0
LINE
  8
PLAN
  6
CONTINUOUS
 62
    11
  5
A53
 10
77.525365
 20
41.043765
 30
0.0
 11
77.505729
 21
41.3716
 31
0.0
  0
LINE
  8
PLAN
  6
CONTINUOUS
 62
    11
  5
A54
 10
77.505729
 20
41.3716
 30
0.0
 11
77.488539
 21
41.699533
 31
0.0
  0
LINE
  8
PLAN
  6
CONTINUOUS
 62
    11
  5
A55
 10
77.488539
 20
41.699533
 30
0.0
 11
77.473434
 21
42.027548
 31
0.0
  0
LINE
  8
PLAN
  6
CONTINUOUS
 62
    11
  5
A56
 10
77.473434
 20
42.027548
 30
0.0
 11
77.46005
 21
42.355631
 31
0.0
  0
LINE
  8
PLAN
  6
CONTINUOUS
 62
    11
  5
A57
 10
77.46005
 20
42.355631
 30
0.0
 11
77.448024
 21
42.683767
 31
0.0
  0
LINE
  8
PLAN
  6
CONTINUOUS
 62
    11
  5
A58
 10
77.448024
 20
42.683767
 30
0.0
 11
77.436993
 21
43.011943
 31
0.0
  0
LINE
  8
PLAN
  6
CONTINUOUS
 62
    11
  5
A59
 10
77.436993
 20
43.011943
 30
0.0
 11
77.426593
 21
43.340144
 31
0.0
  0
LINE
  8
PLAN
  6
CONTINUOUS
 62
    11
  5
A5A
 10
77.426593
 20
43.340144
 30
0.0
 11
77.416463
 21
43.668356
 31
0.0
  0
LINE
  8
PLAN
  6
CONTINUOUS
 62
    11
  5
A5B
 10
77.416463
 20
43.668356
 30
0.0
 11
77.406239
 21
43.996564
 31
0.0
  0
LINE
  8
PLAN
  6
CONTINUOUS
 62
    11
  5
A5C
 10
77.406239
 20
43.996564
 30
0.0
 11
77.395558
 21
44.324754
 31
0.0
  0
LINE
  8
PLAN
  6
CONTINUOUS
 62
    11
  5
A5D
 10
103.035541
 20
65.031731
 30
0.0
 11
98.534007
 21
65.031731
 31
0.0
  0
LINE
  8
PLAN
  6
CONTINUOUS
 62
    11
  5
A5E
 10
98.534007
 20
65.031731
 30
0.0
 11
97.776718
 21
36.031731
 31
0.0
  0
LINE
  8
PLAN
  6
CONTINUOUS
 62
    11
  5
A5F
 10
97.776718
 20
36.031731
 30
0.0
 11
102.278252
 21
36.031731
 31
0.0
  0
TEXT
  8
PLAN
  6
CONTINUOUS
 62
     8
  5
A60
 10
-119.6593
 20
15.374066
 30
0.0
 40
3.951111
  1
Span:             183 mm
  7
ROMANC
  0
TEXT
  8
PLAN
  6
CONTINUOUS
 62
     8
  5
A61
 10
-119.6593
 20
9.165178
 30
0.0
 40
3.951111
  1
Body length:  142 mm
  7
ROMANC
  0
TEXT
  8
PLAN
  6
CONTINUOUS
 62
     8
  5
A62
 10
-119.6593
 20
2.956289
 30
0.0
 40
3.951111
  1
Body width:   24 mm
  7
ROMANC
  0
TEXT
  8
PLAN
  6
CONTINUOUS
 62
     8
  5
A63
 10
-119.6593
 20
-3.2526
 30
0.0
 40
3.951111
  1
Anhedral:       8 mm
  7
ROMANC
  0
ARC
  8
WING
  6
CONTINUOUS
 62
     5
  5
A64
 10
-29.506494
 20
-25.487628
 30
0.0
 40
5.0
 50
0.0
 51
-180.0
  0
LINE
  8
WING
  6
CONTINUOUS
 62
     5
  5
A65
 10
-34.506494
 20
-25.487628
 30
0.0
 11
-34.506494
 21
-60.487628
 31
0.0
  0
LINE
  8
WING
  6
CONTINUOUS
 62
     5
  5
A66
 10
-34.506494
 20
-60.487628
 30
0.0
 11
-24.506494
 21
-60.487628
 31
0.0
  0
LINE
  8
WING
  6
CONTINUOUS
 62
     5
  5
A67
 10
-24.506494
 20
-60.487628
 30
0.0
 11
-24.506494
 21
-25.487628
 31
0.0
  0
LINE
  8
WING
  6
CONTINUOUS
 62
     8
  5
A68
 10
77.115257
 20
56.20252
 30
0.0
 11
77.715275
 21
37.481936
 31
0.0
  0
LINE
  8
WING
  6
CONTINUOUS
 62
     8
  5
A69
 10
78.883334
 20
36.320787
 30
0.0
 11
83.747456
 21
36.193768
 31
0.0
  0
LINE
  8
WING
  6
CONTINUOUS
 62
     8
  5
A6A
 10
83.747456
 20
36.193768
 30
0.0
 11
83.747463
 21
36.99404
 31
0.0
  0
LINE
  8
WING
  6
CONTINUOUS
 62
     8
  5
A6B
 10
83.747463
 20
36.99404
 30
0.0
 11
78.904218
 21
37.120514
 31
0.0
  0
LINE
  8
WING
  6
CONTINUOUS
 62
     8
  5
A6C
 10
78.514865
 20
37.507564
 30
0.0
 11
77.914846
 21
56.228148
 31
0.0
  0
LINE
  8
WING
  6
CONTINUOUS
 62
     8
  5
A6D
 10
74.038108
 20
56.189706
 30
0.0
 11
74.038108
 21
51.589706
 31
0.0
  0
LINE
  8
WING
  6
CONTINUOUS
 62
     8
  5
A6E
 10
74.038108
 20
51.589706
 30
0.0
 11
73.238108
 21
51.589706
 31
0.0
  0
LINE
  8
WING
  6
CONTINUOUS
 62
     8
  5
A6F
 10
73.238108
 20
51.589706
 30
0.0
 11
73.240524
 21
56.190336
 31
0.0
  0
LINE
  8
WING
  6
CONTINUOUS
 62
     8
  5
A70
 10
74.440523
 20
57.389706
 30
0.0
 11
76.715462
 21
57.389706
 31
0.0
  0
ARC
  8
WING
  6
CONTINUOUS
 62
     8
  5
A71
 10
74.440523
 20
56.189706
 30
0.0
 40
1.2
 50
90.0
 51
179.969922
  0
ARC
  8
WING
  6
CONTINUOUS
 62
     8
  5
A72
 10
74.438108
 20
56.189706
 30
0.0
 40
0.4
 50
90.0
 51
180.0
  0
TEXT
  8
WING
  6
CONTINUOUS
 62
     8
  5
A73
 10
29.734082
 20
17.561566
 30
0.0
 40
3.951111
  1
Hook:
  7
ROMANC
  0
TEXT
  8
WING
  6
CONTINUOUS
 62
     8
  5
A74
 10
29.734082
 20
11.352678
 30
0.0
 40
3.951111
  1
0.8mm wire
  7
ROMANC
  0
TEXT
  8
WING
  6
CONTINUOUS
 62
     8
  5
A75
 10
29.734082
 20
5.143789
 30
0.0
 40
3.951111
  1
39mm from nose
  7
ROMANC
  0
TEXT
  8
WING
  6
CONTINUOUS
 62
     8
  5
A76
 10
29.734082
 20
-1.0651
 30
0.0
 40
3.951111
  1
4mm below belly
  7
ROMANC
  0
LINE
  8
WING
  6
CONTINUOUS
 62
     8
  5
A77
 10
76.715462
 20
56.589706
 30
0.0
 11
74.438108
 21
56.589706
 31
0.0
  0
ARC
  8
WING
  6
CONTINUOUS
 62
     8
  5
A78
 10
76.715462
 20
56.189706
 30
0.0
 40
0.4
 50
1.835775
 51
90.0
  0
ARC
  8
WING
  6
CONTINUOUS
 62
     8
  5
A79
 10
78.91466
 20
37.520378
 30
0.0
 40
0.4
 50
-178.164225
 51
-91.495849
  0
ARC
  8
WING
  6
CONTINUOUS
 62
    11
  5
A7A
 10
78.371454
 20
57.154476
 30
0.0
 40
1.2
 50
-179.388034
 51
-179.036502
  0
ARC
  8
WING
  6
CONTINUOUS
 62
    11
  5
A7B
 10
79.027757
 20
36.809489
 30
0.0
 40
1.2
 50
-175.74852
 51
-175.699372
  0
ARC
  8
WING
  6
CONTINUOUS
 62
     8
  5
A7C
 10
76.715462
 20
56.189706
 30
0.0
 40
1.2
 50
1.835775
 51
90.0
  0
ARC
  8
WING
  6
CONTINUOUS
 62
     8
  5
A7D
 10
78.91466
 20
37.520378
 30
0.0
 40
1.2
 50
-178.164225
 51
-91.495849
  0
ENDSEC
  0
EOF
